  0
SECTION
  2
HEADER
  9
$ACADVER
  1
AC1015
  9
$ACADMAINTVER
 70
     6
  9
$DWGCODEPAGE
  3
ANSI_1252
  9
$INSBASE
 10
0.0
 20
0.0
 30
0.0
  9
$EXTMIN
 10
0.0
 20
0.0
 30
0.0
  9
$EXTMAX
 10
80.0
 20
45.0
 30
0.0
  9
$LIMMIN
 10
0.0
 20
0.0
  9
$LIMMAX
 10
80.0
 20
45.0
  9
$ORTHOMODE
 70
     0
  9
$REGENMODE
 70
     1
  9
$FILLMODE
 70
     1
  9
$QTEXTMODE
 70
     0
  9
$MIRRTEXT
 70
     1
  9
$LTSCALE
 40
1.0
  9
$ATTMODE
 70
     1
  9
$TEXTSIZE
 40
0.1666666667
  9
$TRACEWID
 40
0.05
  9
$TEXTSTYLE
  7
Standard
  9
$CLAYER
  8
0
  9
$CELTYPE
  6
ByLayer
  9
$CECOLOR
 62
   256
  9
$CELTSCALE
 40
1.0
  9
$DISPSILH
 70
     0
  9
$DIMSCALE
 40
1.0
  9
$DIMASZ
 40
0.09
  9
$DIMEXO
 40
0.05
  9
$DIMDLI
 40
0.38
  9
$DIMRND
 40
0.0
  9
$DIMDLE
 40
0.0
  9
$DIMEXE
 40
0.0625
  9
$DIMTP
 40
0.0
  9
$DIMTM
 40
0.0
  9
$DIMTXT
 40
0.1666666667
  9
$DIMCEN
 40
0.09
  9
$DIMTSZ
 40
0.0
  9
$DIMTOL
 70
     0
  9
$DIMLIM
 70
     0
  9
$DIMTIH
 70
     1
  9
$DIMTOH
 70
     1
  9
$DIMSE1
 70
     0
  9
$DIMSE2
 70
     0
  9
$DIMTAD
 70
     0
  9
$DIMZIN
 70
     0
  9
$DIMBLK
  1

  9
$DIMASO
 70
     1
  9
$DIMSHO
 70
     1
  9
$DIMPOST
  1

  9
$DIMAPOST
  1

  9
$DIMALT
 70
     0
  9
$DIMALTD
 70
     2
  9
$DIMALTF
 40
25.4
  9
$DIMLFAC
 40
24.0
  9
$DIMTOFL
 70
     0
  9
$DIMTVP
 40
0.0
  9
$DIMTIX
 70
     0
  9
$DIMSOXD
 70
     0
  9
$DIMSAH
 70
     0
  9
$DIMBLK1
  1

  9
$DIMBLK2
  1

  9
$DIMSTYLE
  2
Standard
  9
$DIMCLRD
 70
     0
  9
$DIMCLRE
 70
     0
  9
$DIMCLRT
 70
     0
  9
$DIMTFAC
 40
1.0
  9
$DIMGAP
 40
0.06
  9
$DIMJUST
 70
     0
  9
$DIMSD1
 70
     0
  9
$DIMSD2
 70
     0
  9
$DIMTOLJ
 70
     1
  9
$DIMTZIN
 70
     0
  9
$DIMALTZ
 70
     0
  9
$DIMALTTZ
 70
     0
  9
$DIMUPT
 70
     0
  9
$DIMDEC
 70
     2
  9
$DIMTDEC
 70
     2
  9
$DIMALTU
 70
     2
  9
$DIMALTTD
 70
     2
  9
$DIMTXSTY
  7
Standard
  9
$DIMAUNIT
 70
     0
  9
$DIMADEC
 70
     0
  9
$DIMALTRND
 40
0.0
  9
$DIMAZIN
 70
     0
  9
$DIMDSEP
 70
    46
  9
$DIMATFIT
 70
     3
  9
$DIMFRAC
 70
     0
  9
$DIMLDRBLK
  1

  9
$DIMLUNIT
 70
     2
  9
$DIMLWD
 70
    -2
  9
$DIMLWE
 70
    -2
  9
$DIMTMOVE
 70
     0
  9
$LUNITS
 70
     2
  9
$LUPREC
 70
     2
  9
$SKETCHINC
 40
0.1
  9
$FILLETRAD
 40
0.5
  9
$AUNITS
 70
     0
  9
$AUPREC
 70
     0
  9
$MENU
  1
.
  9
$ELEVATION
 40
0.0
  9
$PELEVATION
 40
0.0
  9
$THICKNESS
 40
0.0
  9
$LIMCHECK
 70
     0
  9
$CHAMFERA
 40
0.5
  9
$CHAMFERB
 40
0.5
  9
$CHAMFERC
 40
1.0
  9
$CHAMFERD
 40
0.0
  9
$SKPOLY
 70
     0
  9
$TDCREATE
 40
2455464.429216655
  9
$TDUCREATE
 40
2455464.637549988
  9
$TDUPDATE
 40
2455464.429216667
  9
$TDUUPDATE
 40
2455464.63755
  9
$TDINDWG
 40
0.0000000116
  9
$TDUSRTIMER
 40
0.0000000116
  9
$USRTIMER
 70
     1
  9
$ANGBASE
 50
0.0
  9
$ANGDIR
 70
     0
  9
$PDMODE
 70
     0
  9
$PDSIZE
 40
-1.0
  9
$PLINEWID
 40
0.0
  9
$SPLFRAME
 70
     0
  9
$SPLINETYPE
 70
     6
  9
$SPLINESEGS
 70
     8
  9
$HANDSEED
  5
171
  9
$SURFTAB1
 70
     6
  9
$SURFTAB2
 70
     6
  9
$SURFTYPE
 70
     6
  9
$SURFU
 70
     6
  9
$SURFV
 70
     6
  9
$UCSBASE
  2

  9
$UCSNAME
  2

  9
$UCSORG
 10
0.0
 20
0.0
 30
0.0
  9
$UCSXDIR
 10
1.0
 20
0.0
 30
0.0
  9
$UCSYDIR
 10
0.0
 20
1.0
 30
0.0
  9
$UCSORTHOREF
  2

  9
$UCSORTHOVIEW
 70
     0
  9
$UCSORGTOP
 10
0.0
 20
0.0
 30
0.0
  9
$UCSORGBOTTOM
 10
0.0
 20
0.0
 30
0.0
  9
$UCSORGLEFT
 10
0.0
 20
0.0
 30
0.0
  9
$UCSORGRIGHT
 10
0.0
 20
0.0
 30
0.0
  9
$UCSORGFRONT
 10
0.0
 20
0.0
 30
0.0
  9
$UCSORGBACK
 10
0.0
 20
0.0
 30
0.0
  9
$PUCSBASE
  2

  9
$PUCSNAME
  2

  9
$PUCSORG
 10
0.0
 20
0.0
 30
0.0
  9
$PUCSXDIR
 10
1.0
 20
0.0
 30
0.0
  9
$PUCSYDIR
 10
0.0
 20
1.0
 30
0.0
  9
$PUCSORTHOREF
  2

  9
$PUCSORTHOVIEW
 70
     0
  9
$PUCSORGTOP
 10
0.0
 20
0.0
 30
0.0
  9
$PUCSORGBOTTOM
 10
0.0
 20
0.0
 30
0.0
  9
$PUCSORGLEFT
 10
0.0
 20
0.0
 30
0.0
  9
$PUCSORGRIGHT
 10
0.0
 20
0.0
 30
0.0
  9
$PUCSORGFRONT
 10
0.0
 20
0.0
 30
0.0
  9
$PUCSORGBACK
 10
0.0
 20
0.0
 30
0.0
  9
$USERI1
 70
     0
  9
$USERI2
 70
     0
  9
$USERI3
 70
     0
  9
$USERI4
 70
     0
  9
$USERI5
 70
     0
  9
$USERR1
 40
0.0
  9
$USERR2
 40
0.0
  9
$USERR3
 40
0.0
  9
$USERR4
 40
0.0
  9
$USERR5
 40
0.0
  9
$WORLDVIEW
 70
     1
  9
$SHADEDGE
 70
     3
  9
$SHADEDIF
 70
    70
  9
$TILEMODE
 70
     1
  9
$MAXACTVP
 70
    64
  9
$PINSBASE
 10
0.0
 20
0.0
 30
0.0
  9
$PLIMCHECK
 70
     0
  9
$PEXTMIN
 10
1.0000000000E+20
 20
1.0000000000E+20
 30
1.0000000000E+20
  9
$PEXTMAX
 10
-1.0000000000E+20
 20
-1.0000000000E+20
 30
-1.0000000000E+20
  9
$PLIMMIN
 10
0.0
 20
0.0
  9
$PLIMMAX
 10
12.0
 20
9.0
  9
$UNITMODE
 70
     0
  9
$VISRETAIN
 70
     1
  9
$PLINEGEN
 70
     0
  9
$PSLTSCALE
 70
     1
  9
$TREEDEPTH
 70
  3020
  9
$CMLSTYLE
  2
Standard
  9
$CMLJUST
 70
     0
  9
$CMLSCALE
 40
1.0
  9
$PROXYGRAPHICS
 70
     1
  9
$MEASUREMENT
 70
     0
  9
$CELWEIGHT
370
    -1
  9
$ENDCAPS
280
     0
  9
$JOINSTYLE
280
     0
  9
$LWDISPLAY
290
     1
  9
$INSUNITS
 70
     1
  9
$HYPERLINKBASE
  1

  9
$STYLESHEET
  1

  9
$XEDIT
290
     1
  9
$CEPSNTYPE
380
     0
  9
$PSTYLEMODE
290
     1
  9
$FINGERPRINTGUID
  2
{EB1916BE-9E67-44FA-9259-340068219D28}
  9
$VERSIONGUID
  2
{FAEB1C32-E019-11D5-929B-00C0DF256EC4}
  9
$EXTNAMES
290
     1
  9
$PSVPSCALE
 40
0.0
  9
$OLESTARTUP
290
     0
  0
ENDSEC
  0
SECTION
  2
CLASSES
  0
CLASS
  1
ACDBDICTIONARYWDFLT
  2
AcDbDictionaryWithDefault
  3
ObjectDBX Classes
 90
        0
280
     0
281
     0
  0
CLASS
  1
VISUALSTYLE
  2
AcDbVisualStyle
  3
ObjectDBX Classes
 90
     4095
280
     0
281
     0
  0
CLASS
  1
MATERIAL
  2
AcDbMaterial
  3
ObjectDBX Classes
 90
     1153
280
     0
281
     0
  0
CLASS
  1
SCALE
  2
AcDbScale
  3
ObjectDBX Classes
 90
     1153
280
     0
281
     0
  0
CLASS
  1
DICTIONARYVAR
  2
AcDbDictionaryVar
  3
ObjectDBX Classes
 90
        0
280
     0
281
     0
  0
CLASS
  1
ACDBPLACEHOLDER
  2
AcDbPlaceHolder
  3
ObjectDBX Classes
 90
        0
280
     0
281
     0
  0
CLASS
  1
LAYOUT
  2
AcDbLayout
  3
ObjectDBX Classes
 90
        0
280
     0
281
     0
  0
ENDSEC
  0
SECTION
  2
TABLES
  0
TABLE
  2
VPORT
  5
8
330
0
100
AcDbSymbolTable
 70
     1
  0
VPORT
  5
29
330
8
100
AcDbSymbolTableRecord
100
AcDbViewportTableRecord
  2
*Active
 70
     0
 10
0.0
 20
0.0
 11
1.0
 21
1.0
 12
40.0
 22
22.5
 13
0.0
 23
0.0
 14
0.5
 24
0.5
 15
0.5
 25
0.5
 16
0.0
 26
0.0
 36
1.0
 17
0.0
 27
0.0
 37
0.0
 40
45.0
 41
1.7777777778
 42
50.0
 43
0.0
 44
0.0
 50
0.0
 51
0.0
 71
     0
 72
  2000
 73
     1
 74
     3
 75
     0
 76
     0
 77
     0
 78
     0
281
     0
 65
     1
110
0.0
120
0.0
130
0.0
111
1.0
121
0.0
131
0.0
112
0.0
122
1.0
132
0.0
 79
     0
146
0.0
  0
ENDTAB
  0
TABLE
  2
LTYPE
  5
5
330
0
100
AcDbSymbolTable
 70
     6
  0
LTYPE
  5
14
330
5
100
AcDbSymbolTableRecord
100
AcDbLinetypeTableRecord
  2
ByBlock
 70
     0
  3

 72
    65
 73
     0
 40
0.0
  0
LTYPE
  5
15
330
5
100
AcDbSymbolTableRecord
100
AcDbLinetypeTableRecord
  2
ByLayer
 70
     0
  3

 72
    65
 73
     0
 40
0.0
  0
LTYPE
  5
16
330
5
100
AcDbSymbolTableRecord
100
AcDbLinetypeTableRecord
  2
Continuous
 70
     0
  3
Solid line
 72
    65
 73
     0
 40
0.0
  0
LTYPE
  5
3F
330
5
100
AcDbSymbolTableRecord
100
AcDbLinetypeTableRecord
  2
HIDDEN
 70
     0
  3
Hidden __ __ __ __ __ __ __ __ __ __ __ __ __ __
 72
    65
 73
     2
 40
0.075
 49
0.05
 74
     0
 49
-0.025
 74
     0
  0
LTYPE
  5
40
330
5
100
AcDbSymbolTableRecord
100
AcDbLinetypeTableRecord
  2
PHANTOM
 70
     0
  3
Phantom ______  __  __  ______  __  __  ______
 72
    65
 73
     6
 40
0.5
 49
0.25
 74
     0
 49
-0.05
 74
     0
 49
0.05
 74
     0
 49
-0.05
 74
     0
 49
0.05
 74
     0
 49
-0.05
 74
     0
  0
LTYPE
  5
41
330
5
100
AcDbSymbolTableRecord
100
AcDbLinetypeTableRecord
  2
CENTER
 70
     0
  3
Center ____ _ ____ _ ____ _ ____ _ ____ _ ____
 72
    65
 73
     4
 40
0.4
 49
0.25
 74
     0
 49
-0.05
 74
     0
 49
0.05
 74
     0
 49
-0.05
 74
     0
  0
LTYPE
  5
42
330
5
100
AcDbSymbolTableRecord
100
AcDbLinetypeTableRecord
  2
CENTERX2
 70
     0
  3
Center (2x) ________  __  ________  __  _____
 72
    65
 73
     4
 40
0.8
 49
0.5
 74
     0
 49
-0.1
 74
     0
 49
0.1
 74
     0
 49
-0.1
 74
     0
  0
LTYPE
  5
43
330
5
100
AcDbSymbolTableRecord
100
AcDbLinetypeTableRecord
  2
DOT2
 70
     0
  3
Dot (.5x) ........................................
 72
    65
 73
     2
 40
0.025
 49
0.0
 74
     0
 49
-0.025
 74
     0
  0
ENDTAB
  0
TABLE
  2
LAYER
  5
2
330
0
100
AcDbSymbolTable
 70
     2
  0
LAYER
  5
10
330
2
100
AcDbSymbolTableRecord
100
AcDbLayerTableRecord
  2
0
 70
     0
 62
     7
  6
Continuous
370
    -3
390
F
  0
LAYER
  5
44
330
2
100
AcDbSymbolTableRecord
100
AcDbLayerTableRecord
  2
FORMAT
 70
     0
 62
     7
  6
Continuous
370
    -3
390
F
  0
ENDTAB
  0
TABLE
  2
STYLE
  5
3
330
0
100
AcDbSymbolTable
 70
     3
  0
STYLE
  5
11
330
3
100
AcDbSymbolTableRecord
100
AcDbTextStyleTableRecord
  2
Standard
 70
     0
 40
0.0
 41
1.0
 50
0.0
 71
     0
 42
0.2
  3
txt
  4

  0
STYLE
  5
147
330
3
100
AcDbSymbolTableRecord
100
AcDbTextStyleTableRecord
  2
SLDTEXTSTYLE0
 70
     0
 40
0.0
 41
0.96
 50
0.0
 71
     0
 42
0.2
  3
TXT
  4

  0
STYLE
  5
16C
330
3
100
AcDbSymbolTableRecord
100
AcDbTextStyleTableRecord
  2
SLDTEXTSTYLE1
 70
     0
 40
0.0
 41
0.8942857143
 50
0.0
 71
     0
 42
0.2
  3
TXT
  4

  0
ENDTAB
  0
TABLE
  2
VIEW
  5
6
330
0
100
AcDbSymbolTable
 70
     0
  0
ENDTAB
  0
TABLE
  2
UCS
  5
7
330
0
100
AcDbSymbolTable
 70
     0
  0
ENDTAB
  0
TABLE
  2
APPID
  5
9
330
0
100
AcDbSymbolTable
 70
     1
  0
APPID
  5
12
330
9
100
AcDbSymbolTableRecord
100
AcDbRegAppTableRecord
  2
ACAD
 70
     0
  0
ENDTAB
  0
TABLE
  2
DIMSTYLE
  5
A
330
0
100
AcDbSymbolTable
 70
     1
100
AcDbDimStyleTable
  0
DIMSTYLE
105
27
330
A
100
AcDbSymbolTableRecord
100
AcDbDimStyleTableRecord
  2
Standard
 70
     0
340
11
  0
ENDTAB
  0
TABLE
  2
BLOCK_RECORD
  5
1
330
0
100
AcDbSymbolTable
 70
     2
  0
BLOCK_RECORD
  5
1F
330
1
100
AcDbSymbolTableRecord
100
AcDbBlockTableRecord
  2
*Model_Space
340
22
  0
BLOCK_RECORD
  5
1B
330
1
100
AcDbSymbolTableRecord
100
AcDbBlockTableRecord
  2
*Paper_Space
340
1E
  0
BLOCK_RECORD
  5
23
330
1
100
AcDbSymbolTableRecord
100
AcDbBlockTableRecord
  2
*Paper_Space0
340
26
  0
BLOCK_RECORD
  5
144
330
1
100
AcDbSymbolTableRecord
100
AcDbBlockTableRecord
  2
SW_NOTE_0
340
0
102
{BLKREFS
331
16E
102
}
  0
ENDTAB
  0
ENDSEC
  0
SECTION
  2
BLOCKS
  0
BLOCK
  5
20
330
1F
100
AcDbEntity
  8
0
100
AcDbBlockBegin
  2
*Model_Space
 70
     0
 10
0.0
 20
0.0
 30
0.0
  3
*Model_Space
  1

  0
ENDBLK
  5
21
330
1F
100
AcDbEntity
  8
0
100
AcDbBlockEnd
  0
BLOCK
  5
1C
330
1B
100
AcDbEntity
 67
     1
  8
0
100
AcDbBlockBegin
  2
*Paper_Space
 70
     0
 10
0.0
 20
0.0
 30
0.0
  3
*Paper_Space
  1

  0
ENDBLK
  5
1D
330
1B
100
AcDbEntity
 67
     1
  8
0
100
AcDbBlockEnd
  0
BLOCK
  5
24
330
23
100
AcDbEntity
  8
0
100
AcDbBlockBegin
  2
*Paper_Space0
 70
     0
 10
0.0
 20
0.0
 30
0.0
  3
*Paper_Space0
  1

  0
ENDBLK
  5
25
330
23
100
AcDbEntity
  8
0
100
AcDbBlockEnd
  0
BLOCK
  5
145
330
144
100
AcDbEntity
  8
0
100
AcDbBlockBegin
  2
SW_NOTE_0
 70
     0
 10
0.0
 20
0.0
 30
0.0
  3
SW_NOTE_0
  1

  0
MTEXT
  5
16A
330
144
100
AcDbEntity
  8
FORMAT
 62
     0
100
AcDbMText
 10
0.0
 20
1.6113346747
 30
0.0
 40
1.25
 41
0.0
 71
     1
 72
     1
  1
Titus
  7
SLDTEXTSTYLE0
 73
     1
 44
1.0
  0
MTEXT
  5
16B
330
144
100
AcDbEntity
  8
FORMAT
 62
     0
100
AcDbMText
 10
0.0
 20
-1.721998765
 30
0.0
 40
1.25
 41
0.0
 71
     1
 72
     1
  1
MDV
  7
SLDTEXTSTYLE0
 73
     1
 44
1.0
  0
MTEXT
  5
16D
330
144
100
AcDbEntity
  8
FORMAT
 62
     0
100
AcDbMText
 10
0.0
 20
-5.0553322047
 30
0.0
 40
1.25
 41
0.0
 71
     1
 72
     1
  1
Size 12
  7
SLDTEXTSTYLE1
 73
     1
 44
1.0
  0
ENDBLK
  5
146
330
144
100
AcDbEntity
  8
0
100
AcDbBlockEnd
  0
ENDSEC
  0
SECTION
  2
ENTITIES
  0
ARC
  5
45
330
1F
100
AcDbEntity
  8
0
  6
Continuous
 62
     7
370
    30
100
AcDbCircle
 10
6.5319213328
 20
35.876176461
 30
0.0
 40
0.1250000000000024
100
AcDbArc
 50
115.0873830763
 51
180.0
  0
LINE
  5
46
330
1F
100
AcDbEntity
  8
0
  6
Continuous
 62
     7
370
    30
100
AcDbLine
 10
6.4069213328
 20
35.876176461
 30
0.0
 11
3.2509213328
 21
35.876176461
 31
0.0
  0
ARC
  5
47
330
1F
100
AcDbEntity
  8
0
  6
Continuous
 62
     7
370
    30
100
AcDbCircle
 10
6.5319213328
 20
9.127176461
 30
0.0
 40
0.1250000000000013
100
AcDbArc
 50
180.0
 51
244.9126169237
  0
LINE
  5
48
330
1F
100
AcDbEntity
  8
0
  6
Continuous
 62
     7
370
    30
100
AcDbLine
 10
3.2509213328
 20
9.127176461
 30
0.0
 11
6.4069213328
 21
9.127176461
 31
0.0
  0
LINE
  5
49
330
1F
100
AcDbEntity
  8
0
  6
Continuous
 62
     7
370
    30
100
AcDbLine
 10
5.9459213328
 20
29.3569291259
 30
0.0
 11
5.9459213328
 21
29.7683205102
 31
0.0
  0
LINE
  5
4A
330
1F
100
AcDbEntity
  8
0
  6
Continuous
 62
     7
370
    30
100
AcDbLine
 10
5.9459213328
 20
30.5182717347
 30
0.0
 11
5.9459213328
 21
30.1069764255
 31
0.0
  0
LWPOLYLINE
  5
4B
330
1F
100
AcDbEntity
  8
0
  6
Continuous
 62
     7
370
    30
100
AcDbPolyline
 90
        3
 70
   128
 43
0.0
 10
5.7853598448
 20
19.2618830224
 10
5.815433003
 20
19.2833689939
 10
5.8559213328
 20
19.2987762572
  0
LINE
  5
4C
330
1F
100
AcDbEntity
  8
0
  6
Continuous
 62
     7
370
    30
100
AcDbLine
 10
5.8359213328
 20
29.3514242282
 30
0.0
 11
5.8359213328
 21
29.7769208839
 31
0.0
  0
LWPOLYLINE
  5
4D
330
1F
100
AcDbEntity
  8
0
  6
Continuous
 62
     7
370
    30
100
AcDbPolyline
 90
        3
 70
   128
 43
0.0
 10
5.8559213328
 20
34.1727762572
 10
5.815433003
 20
34.1573689939
 10
5.7850318637
 20
34.135568519
  0
LINE
  5
4E
330
1F
100
AcDbEntity
  8
0
  6
Continuous
 62
     7
370
    30
100
AcDbLine
 10
5.8359213328
 20
30.5269857303
 30
0.0
 11
5.8359213328
 21
30.1014272532
 31
0.0
  0
LWPOLYLINE
  5
4F
330
1F
100
AcDbEntity
  8
0
  6
Continuous
 62
     7
370
    30
100
AcDbPolyline
 90
       16
 70
   128
 43
0.0
 10
5.8467776592
 20
10.9293669507
 10
5.8317271589
 20
10.9215215783
 10
5.818178862
 20
10.9071839564
 10
5.8134213328
 20
10.8902715783
 10
5.818178862
 20
10.8733592002
 10
5.8317271589
 20
10.8590215783
 10
5.8520036182
 20
10.8494414856
 10
5.8759213328
 20
10.8460774045
 10
5.8998390473
 20
10.8494414856
 10
5.9201155066
 20
10.8590215783
 10
5.9336638035
 20
10.8733592002
 10
5.9384213328
 20
10.8902715783
 10
5.9336638035
 20
10.9071839564
 10
5.9201155066
 20
10.9215215783
 10
5.8998390473
 20
10.9311016709
 10
5.8974431562
 20
10.9317629094
  0
LINE
  5
50
330
1F
100
AcDbEntity
  8
0
  6
Continuous
 62
     7
370
    30
100
AcDbLine
 10
5.8959213328
 20
19.29501814
 30
0.0
 11
5.9259213328
 21
19.29501814
 31
0.0
  0
LINE
  5
51
330
1F
100
AcDbEntity
  8
0
  6
Continuous
 62
     7
370
    30
100
AcDbLine
 10
5.8559213328
 20
19.29501814
 30
0.0
 11
5.8428737317
 21
19.29501814
 31
0.0
  0
ARC
  5
52
330
1F
100
AcDbEntity
  8
0
  6
Continuous
 62
     7
370
    30
100
AcDbCircle
 10
5.8699676851
 20
19.182609447
 30
0.0
 40
0.0591042988785355
100
AcDbArc
 50
84.2187215334
 51
151.0555278385
  0
ARC
  5
53
330
1F
100
AcDbEntity
  8
0
  6
Continuous
 62
     7
370
    30
100
AcDbCircle
 10
5.8818700894
 20
19.1825926285
 30
0.0
 40
0.0591205395434872
100
AcDbArc
 50
28.9941145717
 51
95.7749206305
  0
LINE
  5
54
330
1F
100
AcDbEntity
  8
0
  6
Continuous
 62
     7
370
    30
100
AcDbLine
 10
5.8959213328
 20
19.29501814
 30
0.0
 11
5.8959213328
 21
19.3024751118
 31
0.0
  0
LINE
  5
55
330
1F
100
AcDbEntity
  8
0
  6
Continuous
 62
     7
370
    30
100
AcDbLine
 10
5.8559213328
 20
19.29501814
 30
0.0
 11
5.8559213328
 21
19.3032953709
 31
0.0
  0
LWPOLYLINE
  5
56
330
1F
100
AcDbEntity
  8
0
  6
Continuous
 62
     7
370
    30
100
AcDbPolyline
 90
        8
 70
   128
 43
0.0
 10
5.8759213328
 20
25.7200774045
 10
5.8520036182
 20
25.7234414856
 10
5.8317271589
 20
25.7330215783
 10
5.818178862
 20
25.7473592002
 10
5.8134213328
 20
25.7642715783
 10
5.818178862
 20
25.7811839564
 10
5.8317271589
 20
25.7955215783
 10
5.8494365572
 20
25.8043016087
  0
LWPOLYLINE
  5
57
330
1F
100
AcDbEntity
  8
0
  6
Continuous
 62
     7
370
    30
100
AcDbPolyline
 90
        8
 70
   128
 43
0.0
 10
5.9043457448
 20
25.803630839
 10
5.9201155066
 20
25.7955215783
 10
5.9336638035
 20
25.7811839564
 10
5.9384213328
 20
25.7642715783
 10
5.9336638035
 20
25.7473592002
 10
5.9201155066
 20
25.7330215783
 10
5.8998390473
 20
25.7234414856
 10
5.8759213328
 20
25.7200774045
  0
LINE
  5
58
330
1F
100
AcDbEntity
  8
0
  6
Continuous
 62
     7
370
    30
100
AcDbLine
 10
5.8559213328
 20
34.16901814
 30
0.0
 11
5.8428737317
 21
34.16901814
 31
0.0
  0
LINE
  5
59
330
1F
100
AcDbEntity
  8
0
  6
Continuous
 62
     7
370
    30
100
AcDbLine
 10
5.8959213328
 20
34.16901814
 30
0.0
 11
5.9259213328
 21
34.16901814
 31
0.0
  0
ARC
  5
5A
330
1F
100
AcDbEntity
  8
0
  6
Continuous
 62
     7
370
    30
100
AcDbCircle
 10
5.8759607597
 20
34.0493562854
 30
0.0
 40
0.0679275649403049
100
AcDbArc
 50
32.1611130622
 51
148.253736367
  0
LINE
  5
5B
330
1F
100
AcDbEntity
  8
0
  6
Continuous
 62
     7
370
    30
100
AcDbLine
 10
5.8559213328
 20
34.16901814
 30
0.0
 11
5.8559213328
 21
34.1772953709
 31
0.0
  0
LINE
  5
5C
330
1F
100
AcDbEntity
  8
0
  6
Continuous
 62
     7
370
    30
100
AcDbLine
 10
5.8959213328
 20
34.16901814
 30
0.0
 11
5.8959213328
 21
34.1764751118
 31
0.0
  0
LINE
  5
5D
330
1F
100
AcDbEntity
  8
0
  6
Continuous
 62
     7
370
    30
100
AcDbLine
 10
5.9259213328
 20
29.7765349724
 30
0.0
 11
5.9259213328
 21
29.3533023614
 31
0.0
  0
LINE
  5
5E
330
1F
100
AcDbEntity
  8
0
  6
Continuous
 62
     7
370
    30
100
AcDbLine
 10
5.9259213328
 20
30.5264272472
 30
0.0
 11
5.9259213328
 21
30.1033361687
 31
0.0
  0
LINE
  5
5F
330
1F
100
AcDbEntity
  8
0
  6
Continuous
 62
     7
370
    30
100
AcDbLine
 10
68.2299213328
 20
27.460676461
 30
0.0
 11
68.2299213328
 21
27.503676461
 31
0.0
  0
LINE
  5
60
330
1F
100
AcDbEntity
  8
0
  6
Continuous
 62
     7
370
    30
100
AcDbLine
 10
64.2569213328
 20
27.503676461
 30
0.0
 11
64.2569213328
 21
27.501676461
 31
0.0
  0
LINE
  5
61
330
1F
100
AcDbEntity
  8
0
  6
Continuous
 62
     7
370
    30
100
AcDbLine
 10
64.2569213328
 20
27.503676461
 30
0.0
 11
68.2299213328
 21
27.503676461
 31
0.0
  0
CIRCLE
  5
62
330
1F
100
AcDbEntity
  8
0
  6
Continuous
 62
     7
370
    30
100
AcDbCircle
 10
67.0479213328
 20
27.157676461
 30
0.0
 40
0.0805000000000007
  0
CIRCLE
  5
63
330
1F
100
AcDbEntity
  8
0
  6
Continuous
 62
     7
370
    30
100
AcDbCircle
 10
64.6729213328
 20
27.157676461
 30
0.0
 40
0.0805000000000007
  0
ARC
  5
64
330
1F
100
AcDbEntity
  8
0
  6
Continuous
 62
     7
370
    30
100
AcDbCircle
 10
68.2299213328
 20
27.600676461
 30
0.0
 40
0.0680000000000014
100
AcDbArc
 50
270.0
 51
90.0
  0
LINE
  5
65
330
1F
100
AcDbEntity
  8
0
  6
Continuous
 62
     7
370
    30
100
AcDbLine
 10
68.2299213328
 20
27.571676461
 30
0.0
 11
68.2299213328
 21
27.532676461
 31
0.0
  0
ARC
  5
66
330
1F
100
AcDbEntity
  8
0
  6
Continuous
 62
     7
370
    30
100
AcDbCircle
 10
68.2299213328
 20
27.600676461
 30
0.0
 40
0.0290000000000035
100
AcDbArc
 50
270.0
 51
90.0
  0
LINE
  5
67
330
1F
100
AcDbEntity
  8
0
  6
Continuous
 62
     7
370
    30
100
AcDbLine
 10
68.2299213328
 20
27.629676461
 30
0.0
 11
68.2299213328
 21
27.668676461
 31
0.0
  0
LINE
  5
68
330
1F
100
AcDbEntity
  8
0
  6
Continuous
 62
     7
370
    30
100
AcDbLine
 10
68.2299213328
 20
27.532676461
 30
0.0
 11
68.2299213328
 21
27.503676461
 31
0.0
  0
LINE
  5
69
330
1F
100
AcDbEntity
  8
0
  6
Continuous
 62
     7
370
    30
100
AcDbLine
 10
64.2569213328
 20
27.503676461
 30
0.0
 11
64.2569213328
 21
27.532676461
 31
0.0
  0
LINE
  5
6A
330
1F
100
AcDbEntity
  8
0
  6
Continuous
 62
     7
370
    30
100
AcDbLine
 10
64.2569213328
 20
27.571676461
 30
0.0
 11
68.2299213328
 21
27.571676461
 31
0.0
  0
LINE
  5
6B
330
1F
100
AcDbEntity
  8
0
  6
Continuous
 62
     7
370
    30
100
AcDbLine
 10
67.7979213328
 20
27.629676461
 30
0.0
 11
67.7979213328
 21
27.668676461
 31
0.0
  0
LINE
  5
6C
330
1F
100
AcDbEntity
  8
0
  6
Continuous
 62
     7
370
    30
100
AcDbLine
 10
68.2269213328
 20
27.668676461
 30
0.0
 11
68.2269213328
 21
27.629676461
 31
0.0
  0
LINE
  5
6D
330
1F
100
AcDbEntity
  8
0
  6
Continuous
 62
     7
370
    30
100
AcDbLine
 10
68.2269213328
 20
27.629676461
 30
0.0
 11
67.7979213328
 21
27.629676461
 31
0.0
  0
LINE
  5
6E
330
1F
100
AcDbEntity
  8
0
  6
Continuous
 62
     7
370
    30
100
AcDbLine
 10
67.7979213328
 20
27.668676461
 30
0.0
 11
68.2269213328
 21
27.668676461
 31
0.0
  0
LINE
  5
6F
330
1F
100
AcDbEntity
  8
0
  6
Continuous
 62
     7
370
    30
100
AcDbLine
 10
68.2299213328
 20
27.629676461
 30
0.0
 11
68.2269213328
 21
27.629676461
 31
0.0
  0
LINE
  5
70
330
1F
100
AcDbEntity
  8
0
  6
Continuous
 62
     7
370
    30
100
AcDbLine
 10
68.2299213328
 20
27.668676461
 30
0.0
 11
68.2269213328
 21
27.668676461
 31
0.0
  0
LINE
  5
71
330
1F
100
AcDbEntity
  8
0
  6
Continuous
 62
     7
370
    30
100
AcDbLine
 10
64.2569213328
 20
27.571676461
 30
0.0
 11
64.2569213328
 21
27.532676461
 31
0.0
  0
ARC
  5
72
330
1F
100
AcDbEntity
  8
0
  6
Continuous
 62
     7
370
    30
100
AcDbCircle
 10
64.2569213328
 20
27.600676461
 30
0.0
 40
0.0680000000000041
100
AcDbArc
 50
245.6842608288
 51
270.0
  0
ARC
  5
73
330
1F
100
AcDbEntity
  8
0
  6
Continuous
 62
     7
370
    30
100
AcDbCircle
 10
64.2569213328
 20
27.600676461
 30
0.0
 40
0.0290000000000085
100
AcDbArc
 50
195.0901851797
 51
270.0
  0
LINE
  5
74
330
1F
100
AcDbEntity
  8
0
  6
Continuous
 62
     7
370
    30
100
AcDbLine
 10
64.2569213328
 20
17.501676461
 30
0.0
 11
64.2569213328
 21
17.499676461
 31
0.0
  0
LINE
  5
75
330
1F
100
AcDbEntity
  8
0
  6
Continuous
 62
     7
370
    30
100
AcDbLine
 10
68.2299213328
 20
17.499676461
 30
0.0
 11
68.2299213328
 21
17.542676461
 31
0.0
  0
LINE
  5
76
330
1F
100
AcDbEntity
  8
0
  6
Continuous
 62
     7
370
    30
100
AcDbLine
 10
68.2299213328
 20
17.499676461
 30
0.0
 11
64.2569213328
 21
17.499676461
 31
0.0
  0
CIRCLE
  5
77
330
1F
100
AcDbEntity
  8
0
  6
Continuous
 62
     7
370
    30
100
AcDbCircle
 10
67.0479213328
 20
17.845676461
 30
0.0
 40
0.0805000000000007
  0
CIRCLE
  5
78
330
1F
100
AcDbEntity
  8
0
  6
Continuous
 62
     7
370
    30
100
AcDbCircle
 10
64.6729213328
 20
17.845676461
 30
0.0
 40
0.0805000000000007
  0
LINE
  5
79
330
1F
100
AcDbEntity
  8
0
  6
Continuous
 62
     7
370
    30
100
AcDbLine
 10
64.2569213328
 20
17.470676461
 30
0.0
 11
64.2569213328
 21
17.499676461
 31
0.0
  0
LINE
  5
7A
330
1F
100
AcDbEntity
  8
0
  6
Continuous
 62
     7
370
    30
100
AcDbLine
 10
68.2299213328
 20
17.499676461
 30
0.0
 11
68.2299213328
 21
17.470676461
 31
0.0
  0
LINE
  5
7B
330
1F
100
AcDbEntity
  8
0
  6
Continuous
 62
     7
370
    30
100
AcDbLine
 10
68.2299213328
 20
17.431676461
 30
0.0
 11
64.2569213328
 21
17.431676461
 31
0.0
  0
LINE
  5
7C
330
1F
100
AcDbEntity
  8
0
  6
Continuous
 62
     7
370
    30
100
AcDbLine
 10
68.2299213328
 20
17.373676461
 30
0.0
 11
68.2299213328
 21
17.334676461
 31
0.0
  0
LINE
  5
7D
330
1F
100
AcDbEntity
  8
0
  6
Continuous
 62
     7
370
    30
100
AcDbLine
 10
68.2269213328
 20
17.334676461
 30
0.0
 11
68.2299213328
 21
17.334676461
 31
0.0
  0
LINE
  5
7E
330
1F
100
AcDbEntity
  8
0
  6
Continuous
 62
     7
370
    30
100
AcDbLine
 10
68.2269213328
 20
17.373676461
 30
0.0
 11
68.2269213328
 21
17.334676461
 31
0.0
  0
LINE
  5
7F
330
1F
100
AcDbEntity
  8
0
  6
Continuous
 62
     7
370
    30
100
AcDbLine
 10
68.2269213328
 20
17.373676461
 30
0.0
 11
68.2299213328
 21
17.373676461
 31
0.0
  0
LINE
  5
80
330
1F
100
AcDbEntity
  8
0
  6
Continuous
 62
     7
370
    30
100
AcDbLine
 10
67.7979213328
 20
17.334676461
 30
0.0
 11
67.7979213328
 21
17.373676461
 31
0.0
  0
LINE
  5
81
330
1F
100
AcDbEntity
  8
0
  6
Continuous
 62
     7
370
    30
100
AcDbLine
 10
67.7979213328
 20
17.373676461
 30
0.0
 11
68.2269213328
 21
17.373676461
 31
0.0
  0
LINE
  5
82
330
1F
100
AcDbEntity
  8
0
  6
Continuous
 62
     7
370
    30
100
AcDbLine
 10
68.2269213328
 20
17.334676461
 30
0.0
 11
67.7979213328
 21
17.334676461
 31
0.0
  0
LINE
  5
83
330
1F
100
AcDbEntity
  8
0
  6
Continuous
 62
     7
370
    30
100
AcDbLine
 10
68.2299213328
 20
17.431676461
 30
0.0
 11
68.2299213328
 21
17.470676461
 31
0.0
  0
ARC
  5
84
330
1F
100
AcDbEntity
  8
0
  6
Continuous
 62
     7
370
    30
100
AcDbCircle
 10
68.2299213328
 20
17.402676461
 30
0.0
 40
0.0680000000000014
100
AcDbArc
 50
270.0
 51
90.0
  0
ARC
  5
85
330
1F
100
AcDbEntity
  8
0
  6
Continuous
 62
     7
370
    30
100
AcDbCircle
 10
68.2299213328
 20
17.402676461
 30
0.0
 40
0.0289999999999999
100
AcDbArc
 50
270.0
 51
90.0
  0
ARC
  5
86
330
1F
100
AcDbEntity
  8
0
  6
Continuous
 62
     7
370
    30
100
AcDbCircle
 10
64.2569213328
 20
17.402676461
 30
0.0
 40
0.0290000000000122
100
AcDbArc
 50
90.0
 51
164.9098148203
  0
ARC
  5
87
330
1F
100
AcDbEntity
  8
0
  6
Continuous
 62
     7
370
    30
100
AcDbCircle
 10
64.2569213328
 20
17.402676461
 30
0.0
 40
0.0680000000000073
100
AcDbArc
 50
90.0
 51
114.3157391712
  0
LINE
  5
88
330
1F
100
AcDbEntity
  8
0
  6
Continuous
 62
     7
370
    30
100
AcDbLine
 10
64.2569213328
 20
17.431676461
 30
0.0
 11
64.2569213328
 21
17.470676461
 31
0.0
  0
LINE
  5
89
330
1F
100
AcDbEntity
  8
0
  6
Continuous
 62
     7
370
    30
100
AcDbLine
 10
6.4069213328
 20
24.0011764821
 30
0.0
 11
6.4069213328
 21
35.876176461
 31
0.0
  0
SPLINE
  5
8A
330
1F
100
AcDbEntity
  8
0
  6
Continuous
 62
     7
370
    30
100
AcDbSpline
210
0.0
220
0.0
230
1.0
 70
     8
 71
     3
 72
    11
 73
     7
 74
     0
 42
0.00000001
 43
0.00000001
 40
0.0
 40
0.0
 40
0.0
 40
0.0
 40
0.2562886794629273
 40
0.5557417475991563
 40
0.8551948151581475
 40
1.0
 40
1.0
 40
1.0
 40
1.0
 10
6.406921332764997
 20
24.00117648207672
 30
0.0
 10
6.407923700425537
 20
23.98913634546546
 30
0.0
 10
6.410097255482959
 20
23.9630282607241
 30
0.0
 10
6.42902989611328
 20
23.92698861550931
 30
0.0
 10
6.453318344343248
 20
23.90049406494251
 30
0.0
 10
6.472627536143924
 20
23.89252588383101
 30
0.0
 10
6.478921332764999
 20
23.88992866941244
 30
0.0
  0
SPLINE
  5
8B
330
1F
100
AcDbEntity
  8
0
  6
Continuous
 62
     7
370
    30
100
AcDbSpline
210
0.0
220
0.0
230
1.0
 70
     8
 71
     3
 72
    11
 73
     7
 74
     0
 42
0.00000001
 43
0.00000001
 40
0.0
 40
0.0
 40
0.0
 40
0.0
 40
0.2593710425617701
 40
0.5579408493514857
 40
0.8565106571362351
 40
1.0
 40
1.0
 40
1.0
 40
1.0
 10
6.478921332764999
 20
23.88885958022795
 30
0.0
 10
6.468152935010879
 20
23.89473535069585
 30
0.0
 10
6.444988710779267
 20
23.90737489724303
 30
0.0
 10
6.420274527644283
 20
23.94041763393614
 30
0.0
 10
6.408250346752528
 20
23.97370283102558
 30
0.0
 10
6.407247009196305
 20
23.99444403176889
 30
0.0
 10
6.406921332764997
 20
24.00117648207672
 30
0.0
  0
SPLINE
  5
8C
330
1F
100
AcDbEntity
  8
0
  6
Continuous
 62
     7
370
    30
100
AcDbSpline
210
0.0
220
0.0
230
1.0
 70
    11
 71
     3
 72
    26
 73
    22
 74
     0
 42
0.00000001
 43
0.00000001
 40
0.0
 40
0.0
 40
0.0
 40
0.0
 40
0.0538771324632304
 40
0.10775269018127
 40
0.1616470020147057
 40
0.2154047283124469
 40
0.2689244053185095
 40
0.3222975289978839
 40
0.3757448094120068
 40
0.4294194221674709
 40
0.4832834690980213
 40
0.5371731376336857
 40
0.5909610530643253
 40
0.6446367345988085
 40
0.6982564940142061
 40
0.7518656291738947
 40
0.8054769637222
 40
0.8590882521287809
 40
0.9126972402309521
 40
0.9663169976793711
 40
1.0
 40
1.0
 40
1.0
 40
1.0
 10
6.09492133276502
 20
30.31367646102413
 30
0.0
 10
6.092487709236579
 20
30.33836021549069
 30
0.0
 10
6.087620533310738
 20
30.38772700295587
 30
0.0
 10
6.049715788202386
 20
30.45336983071197
 30
0.0
 10
5.993912166512445
 20
30.50320766316085
 30
0.0
 10
5.924335313118351
 20
30.53155251554024
 30
0.0
 10
5.84961715294776
 20
30.53528603311468
 30
0.0
 10
5.777999126442834
 20
30.5141963407401
 30
0.0
 10
5.717352473500549
 20
30.47070582569832
 30
0.0
 10
5.674351151348389
 20
30.40951211298574
 30
0.0
 10
5.653965326748672
 20
30.33733461061117
 30
0.0
 10
5.658682561699492
 20
30.26237038601109
 30
0.0
 10
5.687997696069351
 20
30.19323905536292
 30
0.0
 10
5.738512727788901
 20
30.13779338624488
 30
0.0
 10
5.804476355665628
 20
30.10222874966908
 30
0.0
 10
5.878475674736377
 20
30.09050060906905
 30
0.0
 10
5.95215715060383
 20
30.10391412004057
 30
0.0
 10
6.017341239125214
 20
30.14096443807988
 30
0.0
 10
6.066219611428609
 20
30.19742206166568
 30
0.0
 10
6.091450893072247
 20
30.25841085343727
 30
0.0
 10
6.09395514611457
 20
30.29829025725563
 30
0.0
 10
6.09492133276502
 20
30.31367646102413
 30
0.0
  0
LINE
  5
8D
330
1F
100
AcDbEntity
  8
0
  6
Continuous
 62
     7
370
    30
100
AcDbLine
 10
3.2509213328
 20
24.0011764821
 30
0.0
 11
3.2509213328
 21
35.876176461
 31
0.0
  0
LINE
  5
8E
330
1F
100
AcDbEntity
  8
0
  6
Continuous
 62
     7
370
    30
100
AcDbLine
 10
6.4069213328
 20
24.0011764821
 30
0.0
 11
3.2509213328
 21
24.0011764821
 31
0.0
  0
SPLINE
  5
8F
330
1F
100
AcDbEntity
  8
0
  6
Continuous
 62
     7
370
    30
100
AcDbSpline
210
0.0
220
0.0
230
1.0
 70
    11
 71
     3
 72
    26
 73
    22
 74
     0
 42
0.00000001
 43
0.00000001
 40
0.0
 40
0.0
 40
0.0
 40
0.0
 40
0.0537175793485343
 40
0.107438292917981
 40
0.1610897129572195
 40
0.2147027917480041
 40
0.2683121498293409
 40
0.3219237157934341
 40
0.3755340117267311
 40
0.4291434169653186
 40
0.48277407150762
 40
0.5364803441426788
 40
0.5903069181201099
 40
0.6442071061779394
 40
0.6980260232330373
 40
0.7516212821077748
 40
0.8050195642380568
 40
0.8584191900968271
 40
0.9120157901702372
 40
0.9658342563059497
 40
1.0
 40
1.0
 40
1.0
 40
1.0
 10
6.09492133276502
 20
29.56367646102412
 30
0.0
 10
6.092501920350772
 20
29.58829955443379
 30
0.0
 10
6.087662954358564
 20
29.63754717791901
 30
0.0
 10
6.049890117335859
 20
29.70313373934181
 30
0.0
 10
5.99426102590587
 20
29.7529643684496
 30
0.0
 10
5.924847883575034
 20
29.78143383245168
 30
0.0
 10
5.850062960002711
 20
29.78536360724939
 30
0.0
 10
5.77816028369077
 20
29.76431798902583
 30
0.0
 10
5.717288911042711
 20
29.72067512801441
 30
0.0
 10
5.674292102348425
 20
29.65936968322239
 30
0.0
 10
5.653991017898968
 20
29.58730724605348
 30
0.0
 10
5.658662008332207
 20
29.51255190865663
 30
0.0
 10
5.687846124526216
 20
29.44346923824583
 30
0.0
 10
5.738343583492004
 20
29.38789898117199
 30
0.0
 10
5.80440467354343
 20
29.35224022926651
 30
0.0
 10
5.878395734469901
 20
29.34051581315938
 30
0.0
 10
5.951873396689121
 20
29.35385096375512
 30
0.0
 10
6.016877979426017
 20
29.39062601954336
 30
0.0
 10
6.065833982400346
 20
29.44680162480234
 30
0.0
 10
6.091368650252628
 20
29.50789295116481
 30
0.0
 10
6.093927635783217
 20
29.54807362987088
 30
0.0
 10
6.09492133276502
 20
29.56367646102412
 30
0.0
  0
SPLINE
  5
90
330
1F
100
AcDbEntity
  8
0
  6
Continuous
 62
     7
370
    30
100
AcDbSpline
210
0.0
220
0.0
230
1.0
 70
    11
 71
     3
 72
    26
 73
    22
 74
     0
 42
0.00000001
 43
0.00000001
 40
0.0
 40
0.0
 40
0.0
 40
0.0
 40
0.0536841672253948
 40
0.1073681723517554
 40
0.1610563841180113
 40
0.214747333448616
 40
0.2684337119385679
 40
0.3221153468774156
 40
0.3757994681165968
 40
0.42948942542219
 40
0.4831794600294087
 40
0.5368636905518367
 40
0.590545296064077
 40
0.6442315525209025
 40
0.6979224763569564
 40
0.751610798900854
 40
0.8052933128028033
 40
0.8589758766101084
 40
0.9126642703194905
 40
0.9663551760530986
 40
1.0
 40
1.0
 40
1.0
 40
1.0
 10
5.875921332764977
 20
34.20289085037413
 30
0.0
 10
5.886462613872204
 20
34.20216990635666
 30
0.0
 10
5.907545144257313
 20
34.2007280204986
 30
0.0
 10
5.935604108407888
 20
34.18946771071597
 30
0.0
 10
5.956936004631744
 20
34.17282470471302
 30
0.0
 10
5.969134937705869
 20
34.1519447646337
 30
0.0
 10
5.970824537103308
 20
34.12931967330387
 30
0.0
 10
5.961815972640878
 20
34.10744647949187
 30
0.0
 10
5.943125354188486
 20
34.08883504293101
 30
0.0
 10
5.916857533408701
 20
34.07563689602309
 30
0.0
 10
5.88597367602692
 20
34.06939945703966
 30
0.0
 10
5.853957986414596
 20
34.07085755664231
 30
0.0
 10
5.824419554401819
 20
34.07983779777368
 30
0.0
 10
5.800685822024914
 20
34.09528476556185
 30
0.0
 10
5.785432571467598
 20
34.11539728258423
 30
0.0
 10
5.780381640124675
 20
34.13785887694601
 30
0.0
 10
5.786100348707222
 20
34.16010701410266
 30
0.0
 10
5.801947041089127
 20
34.17969300557687
 30
0.0
 10
5.826120291852311
 20
34.19432432176414
 30
0.0
 10
5.852245707129294
 20
34.2018561354741
 30
0.0
 10
5.869337115446896
 20
34.20260309503161
 30
0.0
 10
5.875921332764977
 20
34.20289085037413
 30
0.0
  0
SPLINE
  5
91
330
1F
100
AcDbEntity
  8
0
  6
Continuous
 62
     7
370
    30
100
AcDbSpline
210
0.0
220
0.0
230
1.0
 70
    11
 71
     3
 72
    26
 73
    22
 74
     0
 42
0.00000001
 43
0.00000001
 40
0.0
 40
0.0
 40
0.0
 40
0.0
 40
0.0536841672253943
 40
0.1073681723517517
 40
0.1610563841180091
 40
0.2147473334486263
 40
0.2684337119385802
 40
0.3221153468774315
 40
0.37579946811661
 40
0.4294894254222028
 40
0.4831794600294201
 40
0.5368636905518326
 40
0.5905452960640873
 40
0.6442315525209145
 40
0.6979224763569678
 40
0.7516107989008649
 40
0.8052933128028136
 40
0.8589758766101132
 40
0.9126642703195085
 40
0.9663551760530983
 40
1.0
 40
1.0
 40
1.0
 40
1.0
 10
5.875921332764977
 20
25.80704459314664
 30
0.0
 10
5.8864626138722
 20
25.80629983948341
 30
0.0
 10
5.907545144257313
 20
25.80481033440573
 30
0.0
 10
5.935604108407897
 20
25.7932190868641
 30
0.0
 10
5.956936004631739
 20
25.77620857363148
 30
0.0
 10
5.969134937705878
 20
25.75506472704706
 30
0.0
 10
5.970824537103321
 20
25.73240059111371
 30
0.0
 10
5.96181597264087
 20
25.71072878549178
 30
0.0
 10
5.943125354188481
 20
25.69247132980839
 30
0.0
 10
5.916857533408697
 20
25.679624576447
 30
0.0
 10
5.885973676026924
 20
25.67358194345064
 30
0.0
 10
5.853957986414591
 20
25.67499286018845
 30
0.0
 10
5.824419554401842
 20
25.68370465262688
 30
0.0
 10
5.800685822024906
 20
25.6987795414668
 30
0.0
 10
5.785432571467615
 20
25.71857936324684
 30
0.0
 10
5.780381640124666
 20
25.74092478225985
 30
0.0
 10
5.786100348707253
 20
25.76330385572764
 30
0.0
 10
5.801947041089123
 20
25.78321159098429
 30
0.0
 10
5.826120291852315
 20
25.79821044096104
 30
0.0
 10
5.852245707129303
 20
25.80597644315596
 30
0.0
 10
5.869337115446884
 20
25.80674753946894
 30
0.0
 10
5.875921332764973
 20
25.80704459314664
 30
0.0
  0
SPLINE
  5
92
330
1F
100
AcDbEntity
  8
0
  6
Continuous
 62
     7
370
    30
100
AcDbSpline
210
0.0
220
0.0
230
1.0
 70
     8
 71
     3
 72
    12
 73
     8
 74
     0
 42
0.00000001
 43
0.00000001
 40
0.0
 40
0.0
 40
0.0
 40
0.0
 40
0.2448740460626616
 40
0.4897473441876689
 40
0.7346400520735897
 40
0.9795453913373061
 40
1.0
 40
1.0
 40
1.0
 40
1.0
 10
5.875921332764973
 20
34.17884620510777
 30
0.0
 10
5.88644695687136
 20
34.17812405051131
 30
0.0
 10
5.907498172934912
 20
34.17667974352414
 30
0.0
 10
5.935791853402955
 20
34.1654396088897
 30
0.0
 10
5.956231687169557
 20
34.14872469846892
 30
0.0
 10
5.96701941512963
 20
34.13441308016257
 30
0.0
 10
5.967486078371022
 20
34.12637587103634
 30
0.0
 10
5.967522049941167
 20
34.12575634284944
 30
0.0
  0
SPLINE
  5
93
330
1F
100
AcDbEntity
  8
0
  6
Continuous
 62
     7
370
    30
100
AcDbSpline
210
0.0
220
0.0
230
1.0
 70
     8
 71
     3
 72
    12
 73
     8
 74
     0
 42
0.00000001
 43
0.00000001
 40
0.0
 40
0.0
 40
0.0
 40
0.0
 40
0.1181935338089396
 40
0.3613154533087617
 40
0.6044640806315723
 40
0.8476242163757323
 40
1.0
 40
1.0
 40
1.0
 40
1.0
 10
5.785060109208321
 20
34.12500432376038
 30
0.0
 10
5.785733672360333
 20
34.1285925575046
 30
0.0
 10
5.787792742495216
 20
34.13956172189194
 30
0.0
 10
5.802296894401576
 20
34.15560128199501
 30
0.0
 10
5.826025229038793
 20
34.17029353920587
 30
0.0
 10
5.852259222805672
 20
34.17780965311994
 30
0.0
 10
5.8693408335211
 20
34.17855793708839
 30
0.0
 10
5.875921332764973
 20
34.17884620510777
 30
0.0
  0
SPLINE
  5
94
330
1F
100
AcDbEntity
  8
0
  6
Continuous
 62
     7
370
    30
100
AcDbSpline
210
0.0
220
0.0
230
1.0
 70
     8
 71
     3
 72
    16
 73
    12
 74
     0
 42
0.00000001
 43
0.00000001
 40
0.0
 40
0.0
 40
0.0
 40
0.0
 40
0.0969041377839417
 40
0.2185888577311505
 40
0.3402869589862857
 40
0.4619852375789553
 40
0.5836702081833077
 40
0.7053491599089399
 40
0.8270387755731735
 40
0.9487390929825369
 40
1.0
 40
1.0
 40
1.0
 40
1.0
 10
5.967241776444096
 20
25.75227686420896
 30
0.0
 10
5.965391689713195
 20
25.74648583237975
 30
0.0
 10
5.961218407184072
 20
25.73342287076034
 30
0.0
 10
5.942928239123974
 20
25.71654648991997
 30
0.0
 10
5.916912386542705
 20
25.7036604766319
 30
0.0
 10
5.885952168577537
 20
25.6976279849771
 30
0.0
 10
5.853990047963698
 20
25.69904052802788
 30
0.0
 10
5.824313775138916
 20
25.70773470059147
 30
0.0
 10
5.801077907305933
 20
25.7228738707094
 30
0.0
 10
5.787271094399342
 20
25.73865548509237
 30
0.0
 10
5.785554040147865
 20
25.74916683207886
 30
0.0
 10
5.78504515291826
 20
25.75228210362187
 30
0.0
  0
LINE
  5
95
330
1F
100
AcDbEntity
  8
0
  6
Continuous
 62
     7
370
    30
100
AcDbLine
 10
6.4069213328
 20
9.127176461
 30
0.0
 11
6.4069213328
 21
21.00217644
 31
0.0
  0
SPLINE
  5
96
330
1F
100
AcDbEntity
  8
0
  6
Continuous
 62
     7
370
    30
100
AcDbSpline
210
0.0
220
0.0
230
1.0
 70
     8
 71
     3
 72
    11
 73
     7
 74
     0
 42
0.00000001
 43
0.00000001
 40
0.0
 40
0.0
 40
0.0
 40
0.0
 40
0.2562886794629273
 40
0.5557417475991563
 40
0.8551948151581475
 40
1.0
 40
1.0
 40
1.0
 40
1.0
 10
6.406921332764997
 20
21.00217643997152
 30
0.0
 10
6.407923700425537
 20
21.01421657658278
 30
0.0
 10
6.410097255482959
 20
21.04032466132414
 30
0.0
 10
6.42902989611328
 20
21.07636430653893
 30
0.0
 10
6.453318344343248
 20
21.10285885710573
 30
0.0
 10
6.472627536143924
 20
21.11082703821723
 30
0.0
 10
6.478921332764999
 20
21.1134242526358
 30
0.0
  0
SPLINE
  5
97
330
1F
100
AcDbEntity
  8
0
  6
Continuous
 62
     7
370
    30
100
AcDbSpline
210
0.0
220
0.0
230
1.0
 70
     8
 71
     3
 72
    11
 73
     7
 74
     0
 42
0.00000001
 43
0.00000001
 40
0.0
 40
0.0
 40
0.0
 40
0.0
 40
0.2593710425617701
 40
0.5579408493514857
 40
0.8565106571362351
 40
1.0
 40
1.0
 40
1.0
 40
1.0
 10
6.478921332764999
 20
21.11449334182029
 30
0.0
 10
6.468152935010879
 20
21.10861757135239
 30
0.0
 10
6.444988710779267
 20
21.09597802480521
 30
0.0
 10
6.420274527644283
 20
21.06293528811209
 30
0.0
 10
6.408250346752528
 20
21.02965009102266
 30
0.0
 10
6.407247009196305
 20
21.00890889027935
 30
0.0
 10
6.406921332764997
 20
21.00217643997152
 30
0.0
  0
LINE
  5
98
330
1F
100
AcDbEntity
  8
0
  6
Continuous
 62
     7
370
    30
100
AcDbLine
 10
3.2509213328
 20
21.00217644
 30
0.0
 11
6.4069213328
 21
21.00217644
 31
0.0
  0
SPLINE
  5
99
330
1F
100
AcDbEntity
  8
0
  6
Continuous
 62
     7
370
    30
100
AcDbSpline
210
0.0
220
0.0
230
1.0
 70
    11
 71
     3
 72
    26
 73
    22
 74
     0
 42
0.00000001
 43
0.00000001
 40
0.0
 40
0.0
 40
0.0
 40
0.0
 40
0.0536841672253955
 40
0.1073681723517573
 40
0.1610563841180148
 40
0.2147473334486195
 40
0.268433711938574
 40
0.3221153468774149
 40
0.3757994681165853
 40
0.4294894254221438
 40
0.4831794600293478
 40
0.5368636905517759
 40
0.5905452960640161
 40
0.6442315525209251
 40
0.6979224763569674
 40
0.751610798900865
 40
0.8052933128028168
 40
0.8589758766101243
 40
0.9126642703195043
 40
0.966355176053098
 40
1.0
 40
1.0
 40
1.0
 40
1.0
 10
5.875921332764973
 20
19.3288908503741
 30
0.0
 10
5.8864626138722
 20
19.32816990635663
 30
0.0
 10
5.907545144257308
 20
19.32672802049857
 30
0.0
 10
5.935604108407897
 20
19.31546771071592
 30
0.0
 10
5.95693600463173
 20
19.29882470471299
 30
0.0
 10
5.969134937705878
 20
19.27794476463366
 30
0.0
 10
5.970824537103308
 20
19.25531967330383
 30
0.0
 10
5.96181597264087
 20
19.23344647949184
 30
0.0
 10
5.943125354188498
 20
19.21483504293099
 30
0.0
 10
5.916857533408728
 20
19.20163689602305
 30
0.0
 10
5.885973676026954
 20
19.19539945703962
 30
0.0
 10
5.853957986414618
 20
19.19685755664228
 30
0.0
 10
5.824419554401859
 20
19.20583779777365
 30
0.0
 10
5.800685822024914
 20
19.22128476556182
 30
0.0
 10
5.785432571467611
 20
19.24139728258419
 30
0.0
 10
5.780381640124666
 20
19.26385887694598
 30
0.0
 10
5.78610034870723
 20
19.28610701410263
 30
0.0
 10
5.801947041089127
 20
19.30569300557683
 30
0.0
 10
5.826120291852302
 20
19.3203243217641
 30
0.0
 10
5.852245707129303
 20
19.32785613547406
 30
0.0
 10
5.869337115446879
 20
19.32860309503159
 30
0.0
 10
5.875921332764977
 20
19.3288908503741
 30
0.0
  0
SPLINE
  5
9A
330
1F
100
AcDbEntity
  8
0
  6
Continuous
 62
     7
370
    30
100
AcDbSpline
210
0.0
220
0.0
230
1.0
 70
    11
 71
     3
 72
    26
 73
    22
 74
     0
 42
0.00000001
 43
0.00000001
 40
0.0
 40
0.0
 40
0.0
 40
0.0
 40
0.0536841672253937
 40
0.1073681723517532
 40
0.1610563841179803
 40
0.2147473334485814
 40
0.2684337119385401
 40
0.3221153468773959
 40
0.3757994681165739
 40
0.4294894254222464
 40
0.4831794600294482
 40
0.5368636905518748
 40
0.5905452960641194
 40
0.644231552520911
 40
0.6979224763569591
 40
0.7516107989008584
 40
0.8052933128028013
 40
0.85897587661011
 40
0.9126642703194923
 40
0.9663551760530844
 40
0.9999999999999999
 40
0.9999999999999999
 40
0.9999999999999999
 40
0.9999999999999999
 10
5.875921332764969
 20
10.80046207167416
 30
0.0
 10
5.865380051657747
 20
10.80118301569163
 30
0.0
 10
5.844297521272625
 20
10.80262490154969
 30
0.0
 10
5.816238557122068
 20
10.81388521133233
 30
0.0
 10
5.794906660898195
 20
10.83052821733528
 30
0.0
 10
5.782707727824078
 20
10.85140815741461
 30
0.0
 10
5.781018128426634
 20
10.87403324874443
 30
0.0
 10
5.79002669288909
 20
10.89590644255643
 30
0.0
 10
5.808717311341461
 20
10.91451787911733
 30
0.0
 10
5.834985132121275
 20
10.9277160260252
 30
0.0
 10
5.865868989503054
 20
10.93395346500865
 30
0.0
 10
5.897884679115394
 20
10.932495365406
 30
0.0
 10
5.927423111128135
 20
10.92351512427463
 30
0.0
 10
5.951156843505053
 20
10.90806815648644
 30
0.0
 10
5.966410094062327
 20
10.88795563946407
 30
0.0
 10
5.971461025405284
 20
10.86549404510228
 30
0.0
 10
5.965742316822707
 20
10.84324590794563
 30
0.0
 10
5.94989562444082
 20
10.82365991647143
 30
0.0
 10
5.925722373677636
 20
10.80902860028415
 30
0.0
 10
5.899596958400662
 20
10.8014967865742
 30
0.0
 10
5.882505550083055
 20
10.80074982701668
 30
0.0
 10
5.875921332764969
 20
10.80046207167416
 30
0.0
  0
LINE
  5
9B
330
1F
100
AcDbEntity
  8
0
  6
Continuous
 62
     7
370
    30
100
AcDbLine
 10
3.2509213328
 20
9.127176461
 30
0.0
 11
3.2509213328
 21
21.00217644
 31
0.0
  0
SPLINE
  5
9C
330
1F
100
AcDbEntity
  8
0
  6
Continuous
 62
     7
370
    30
100
AcDbSpline
210
0.0
220
0.0
230
1.0
 70
     8
 71
     3
 72
    12
 73
     8
 74
     0
 42
0.00000001
 43
0.00000001
 40
0.0
 40
0.0
 40
0.0
 40
0.0
 40
0.2404953858773268
 40
0.4809900371910946
 40
0.721503751194473
 40
0.9620298707105183
 40
1.0
 40
1.0
 40
1.0
 40
1.0
 10
5.875921332764977
 20
19.30484620510774
 30
0.0
 10
5.886448849920206
 20
19.30412426926342
 30
0.0
 10
5.907503852075661
 20
19.30268039977984
 30
0.0
 10
5.935769136170704
 20
19.29143698378943
 30
0.0
 10
5.956316886194928
 20
19.27473454368152
 30
0.0
 10
5.967199460314213
 20
19.25987873766397
 30
0.0
 10
5.96759181532799
 20
19.25127779411347
 30
0.0
 10
5.967645308941151
 20
19.25010514299151
 30
0.0
  0
SPLINE
  5
9D
330
1F
100
AcDbEntity
  8
0
  6
Continuous
 62
     7
370
    30
100
AcDbSpline
210
0.0
220
0.0
230
1.0
 70
     8
 71
     3
 72
    12
 73
     8
 74
     0
 42
0.00000001
 43
0.00000001
 40
0.0
 40
0.0
 40
0.0
 40
0.0
 40
0.127611829569853
 40
0.3681370407991201
 40
0.608688674593474
 40
0.8492516938914694
 40
1.0
 40
1.0
 40
1.0
 40
1.0
 10
5.784810921351555
 20
19.2500345622724
 30
0.0
 10
5.785531433566682
 20
19.25395359733886
 30
0.0
 10
5.787609980952383
 20
19.26525930447446
 30
0.0
 10
5.802271369510494
 20
19.28160661652741
 30
0.0
 10
5.826032142130039
 20
19.29629209441576
 30
0.0
 10
5.852258222625554
 20
19.3038098621509
 30
0.0
 10
5.869340555368206
 20
19.30455799522047
 30
0.0
 10
5.875921332764977
 20
19.30484620510774
 30
0.0
  0
SPLINE
  5
9E
330
1F
100
AcDbEntity
  8
0
  6
Continuous
 62
     7
370
    30
100
AcDbSpline
210
0.0
220
0.0
230
1.0
 70
     8
 71
     3
 72
    12
 73
     8
 74
     0
 42
0.00000001
 43
0.00000001
 40
0.0
 40
0.0
 40
0.0
 40
0.0
 40
0.2448740460626632
 40
0.4897473441876603
 40
0.7346400520734604
 40
0.97954539133713
 40
1.0
 40
1.0
 40
1.0
 40
1.0
 10
5.875921332764969
 20
10.82450671694052
 30
0.0
 10
5.865395708658578
 20
10.82522887153698
 30
0.0
 10
5.844344492595017
 20
10.82667317852415
 30
0.0
 10
5.816050812127014
 20
10.83791331315859
 30
0.0
 10
5.795610978360355
 20
10.85462822357937
 30
0.0
 10
5.784823250400365
 20
10.86893984188575
 30
0.0
 10
5.784356587158925
 20
10.87697705101196
 30
0.0
 10
5.784320615588785
 20
10.87759657919887
 30
0.0
  0
SPLINE
  5
9F
330
1F
100
AcDbEntity
  8
0
  6
Continuous
 62
     7
370
    30
100
AcDbSpline
210
0.0
220
0.0
230
1.0
 70
     8
 71
     3
 72
    12
 73
     8
 74
     0
 42
0.00000001
 43
0.00000001
 40
0.0
 40
0.0
 40
0.0
 40
0.0
 40
0.118193533808916
 40
0.3613154533087382
 40
0.6044640806315802
 40
0.8476242163757347
 40
1.0
 40
1.0
 40
1.0
 40
1.0
 10
5.966782556321617
 20
10.87834859828792
 30
0.0
 10
5.966108993169605
 20
10.87476036454369
 30
0.0
 10
5.964049923034726
 20
10.86379120015635
 30
0.0
 10
5.949545771128371
 20
10.84775164005328
 30
0.0
 10
5.92581743649114
 20
10.83305938284242
 30
0.0
 10
5.899583442724267
 20
10.82554326892835
 30
0.0
 10
5.882501832008842
 20
10.8247949849599
 30
0.0
 10
5.875921332764969
 20
10.82450671694053
 30
0.0
  0
ARC
  5
A0
330
1F
100
AcDbEntity
  8
0
  6
Continuous
 62
     7
370
    30
100
AcDbCircle
 10
63.8139213328
 20
22.501676461
 30
0.0
 40
0.0469999999999983
100
AcDbArc
 50
180.0
 51
283.0269951005
  0
ARC
  5
A1
330
1F
100
AcDbEntity
  8
0
  6
Continuous
 62
     7
370
    30
100
AcDbCircle
 10
63.8139213328
 20
22.501676461
 30
0.0
 40
0.0470000000000063
100
AcDbArc
 50
31.7332750031
 51
180.0
  0
LWPOLYLINE
  5
A2
330
1F
100
AcDbEntity
  8
0
  6
Continuous
 62
     7
370
    30
100
AcDbPolyline
 90
        3
 70
   128
 43
0.0
 10
64.1604728052
 20
7.0148501403
 10
64.1687117007
 20
7.0218860931
 10
64.1757970477
 20
7.0301930758
  0
CIRCLE
  5
A3
330
1F
100
AcDbEntity
  8
0
  6
Continuous
 62
     7
370
    30
100
AcDbCircle
 10
6.9389213328
 20
22.501676461
 30
0.0
 40
0.0469999999999962
  0
CIRCLE
  5
A4
330
1F
100
AcDbEntity
  8
0
  6
Continuous
 62
     7
370
    30
100
AcDbCircle
 10
6.9389213328
 20
8.501676461
 30
0.0
 40
0.0470000000000015
  0
CIRCLE
  5
A5
330
1F
100
AcDbEntity
  8
0
  6
Continuous
 62
     7
370
    30
100
AcDbCircle
 10
6.9389213328
 20
36.501676461
 30
0.0
 40
0.0470000000000015
  0
LINE
  5
A6
330
1F
100
AcDbEntity
  8
0
  6
Continuous
 62
     7
370
    30
100
AcDbLine
 10
6.5189213328
 20
6.9645153107
 30
0.0
 11
6.4789213328
 21
6.9645153107
 31
0.0
  0
LINE
  5
A7
330
1F
100
AcDbEntity
  8
0
  6
Continuous
 62
     7
370
    30
100
AcDbLine
 10
6.5189213328
 20
7.0295153107
 30
0.0
 11
6.5189213328
 21
6.9645153107
 31
0.0
  0
LINE
  5
A8
330
1F
100
AcDbEntity
  8
0
  6
Continuous
 62
     7
370
    30
100
AcDbLine
 10
6.4789213328
 20
7.0295153107
 30
0.0
 11
6.4789213328
 21
6.9645153107
 31
0.0
  0
LINE
  5
A9
330
1F
100
AcDbEntity
  8
0
  6
Continuous
 62
     7
370
    30
100
AcDbLine
 10
6.5467601824
 20
6.896676461
 30
0.0
 11
9.4904059764
 21
6.896676461
 31
0.0
  0
LINE
  5
AA
330
1F
100
AcDbEntity
  8
0
  6
Continuous
 62
     7
370
    30
100
AcDbLine
 10
27.5304366891
 20
6.896676461
 30
0.0
 11
64.1610824831
 21
6.896676461
 31
0.0
  0
LINE
  5
AB
330
1F
100
AcDbEntity
  8
0
  6
Continuous
 62
     7
370
    30
100
AcDbLine
 10
64.1610824831
 20
6.936676461
 30
0.0
 11
64.1610824831
 21
6.896676461
 31
0.0
  0
LINE
  5
AC
330
1F
100
AcDbEntity
  8
0
  6
Continuous
 62
     7
370
    30
100
AcDbLine
 10
6.5467601824
 20
6.936676461
 30
0.0
 11
6.5467601824
 21
6.896676461
 31
0.0
  0
LINE
  5
AD
330
1F
100
AcDbEntity
  8
0
  6
Continuous
 62
     7
370
    30
100
AcDbLine
 10
6.5467601824
 20
6.936676461
 30
0.0
 11
9.4904059764
 21
6.936676461
 31
0.0
  0
LINE
  5
AE
330
1F
100
AcDbEntity
  8
0
  6
Continuous
 62
     7
370
    30
100
AcDbLine
 10
27.5304366891
 20
6.936676461
 30
0.0
 11
64.1610824831
 21
6.936676461
 31
0.0
  0
LINE
  5
AF
330
1F
100
AcDbEntity
  8
0
  6
Continuous
 62
     7
370
    30
100
AcDbLine
 10
64.1889213328
 20
6.9645153107
 30
0.0
 11
64.2289213328
 21
6.9645153107
 31
0.0
  0
LINE
  5
B0
330
1F
100
AcDbEntity
  8
0
  6
Continuous
 62
     7
370
    30
100
AcDbLine
 10
64.2289213328
 20
6.9645153107
 30
0.0
 11
64.2289213328
 21
7.0295153107
 31
0.0
  0
LINE
  5
B1
330
1F
100
AcDbEntity
  8
0
  6
Continuous
 62
     7
370
    30
100
AcDbLine
 10
64.1889213328
 20
6.9645153107
 30
0.0
 11
64.1889213328
 21
7.0295153107
 31
0.0
  0
SPLINE
  5
B2
330
1F
100
AcDbEntity
  8
0
  6
Continuous
 62
     7
370
    30
100
AcDbSpline
210
0.0
220
0.0
230
1.0
 70
     8
 71
     3
 72
    11
 73
     7
 74
     0
 42
0.00000001
 43
0.00000001
 40
0.0
 40
0.0
 40
0.0
 40
0.0
 40
0.2623463654002473
 40
0.5246927308005241
 40
0.7870390962008438
 40
1.0
 40
1.0
 40
1.0
 40
1.0
 10
6.518921332765066
 20
6.964515310677142
 30
0.0
 10
6.519371500261692
 20
6.96469540653939
 30
0.0
 10
6.520271835254952
 20
6.96505559826389
 30
0.0
 10
6.527221006953464
 20
6.965595885850634
 30
0.0
 10
6.536473466383912
 20
6.966102271243713
 30
0.0
 10
6.543577312092616
 20
6.966428560774532
 30
0.0
 10
6.546760182418006
 20
6.966574754443107
 30
0.0
  0
SPLINE
  5
B3
330
1F
100
AcDbEntity
  8
0
  6
Continuous
 62
     7
370
    30
100
AcDbSpline
210
0.0
220
0.0
230
1.0
 70
     8
 71
     3
 72
    11
 73
     7
 74
     0
 42
0.00000001
 43
0.00000001
 40
0.0
 40
0.0
 40
0.0
 40
0.0
 40
0.212960903801633
 40
0.4753072692010933
 40
0.737653634600522
 40
1.0
 40
1.0
 40
1.0
 40
1.0
 10
64.16108248311198
 20
6.966574754443304
 30
0.0
 10
64.16426535343741
 20
6.966428560774733
 30
0.0
 10
64.17136919914618
 20
6.96610227124391
 30
0.0
 10
64.18062165857667
 20
6.96559588585083
 30
0.0
 10
64.18757083027516
 20
6.965055598264091
 30
0.0
 10
64.18847116526844
 20
6.964695406539587
 30
0.0
 10
64.18892133276508
 20
6.964515310677339
 30
0.0
  0
SPLINE
  5
B4
330
1F
100
AcDbEntity
  8
0
  6
Continuous
 62
     7
370
    30
100
AcDbSpline
210
0.0
220
0.0
230
1.0
 70
     8
 71
     3
 72
    11
 73
     7
 74
     0
 42
0.00000001
 43
0.00000001
 40
0.0
 40
0.0
 40
0.0
 40
0.0
 40
0.2805459077525619
 40
0.5610918155051183
 40
0.8416377232576794
 40
1.0
 40
1.0
 40
1.0
 40
1.0
 10
64.16108248311205
 20
6.936676461024325
 30
0.0
 10
64.1609023872498
 20
6.937125292661933
 30
0.0
 10
64.1605421955253
 20
6.938022955937154
 30
0.0
 10
64.16000190793856
 20
6.944992165520993
 30
0.0
 10
64.15954005587973
 20
6.953365840863502
 30
0.0
 10
64.15925829968316
 20
6.959472955551839
 30
0.0
 10
64.15915663934882
 20
6.961676461024139
 30
0.0
  0
SPLINE
  5
B5
330
1F
100
AcDbEntity
  8
0
  6
Continuous
 62
     7
370
    30
100
AcDbSpline
210
0.0
220
0.0
230
1.0
 70
     8
 71
     3
 72
    11
 73
     7
 74
     0
 42
0.00000001
 43
0.00000001
 40
0.0
 40
0.0
 40
0.0
 40
0.0
 40
0.158362276746372
 40
0.4389081844975811
 40
0.7194540922487804
 40
1.0
 40
1.0
 40
1.0
 40
1.0
 10
6.548686026181309
 20
6.961676461024139
 30
0.0
 10
6.548584365846972
 20
6.959472955551774
 30
0.0
 10
6.548302609650391
 20
6.953365840863366
 30
0.0
 10
6.547840757591546
 20
6.944992165520787
 30
0.0
 10
6.547300470004829
 20
6.938022955936954
 30
0.0
 10
6.546940278280329
 20
6.937125292661737
 30
0.0
 10
6.546760182418072
 20
6.936676461024128
 30
0.0
  0
ARC
  5
B6
330
1F
100
AcDbEntity
  8
0
  6
Continuous
 62
     7
370
    30
100
AcDbCircle
 10
63.7599213328
 20
22.459176461
 30
0.0
 40
0.0940000000000049
100
AcDbArc
 50
20.227260475
 51
66.7437942131
  0
SPLINE
  5
B7
330
1F
100
AcDbEntity
  8
0
  6
Continuous
 62
     7
370
    30
100
AcDbSpline
210
0.0
220
0.0
230
1.0
 70
     8
 71
     3
 72
    11
 73
     7
 74
     0
 42
0.00000001
 43
0.00000001
 40
0.0
 40
0.0
 40
0.0
 40
0.0
 40
0.2500000000000102
 40
0.5000000000000028
 40
0.7500000000000192
 40
1.0
 40
1.0
 40
1.0
 40
1.0
 10
6.478921332764995
 20
38.01883761137113
 30
0.0
 10
6.479973542860112
 20
38.01865751550887
 30
0.0
 10
6.482077963050341
 20
38.01829732378438
 30
0.0
 10
6.498265407968892
 20
38.01775703619764
 30
0.0
 10
6.521403553565702
 20
38.01721674861088
 30
0.0
 10
6.539748739698575
 20
38.01685655688639
 30
0.0
 10
6.54892133276501
 20
38.01667646102414
 30
0.0
  0
LINE
  5
B8
330
1F
100
AcDbEntity
  8
0
  6
Continuous
 62
     7
370
    30
100
AcDbLine
 10
6.4789213328
 20
38.0188376114
 30
0.0
 11
6.5189213328
 21
38.0188376114
 31
0.0
  0
SPLINE
  5
B9
330
1F
100
AcDbEntity
  8
0
  6
Continuous
 62
     7
370
    30
100
AcDbSpline
210
0.0
220
0.0
230
1.0
 70
     8
 71
     3
 72
    11
 73
     7
 74
     0
 42
0.00000001
 43
0.00000001
 40
0.0
 40
0.0
 40
0.0
 40
0.0
 40
0.2500000000000259
 40
0.5000000000000195
 40
0.7500000000000061
 40
0.9999999999999999
 40
0.9999999999999999
 40
0.9999999999999999
 40
0.9999999999999999
 10
6.548921332764993
 20
7.031676461024136
 30
0.0
 10
6.539748739698553
 20
7.031496365161889
 30
0.0
 10
6.52140355356568
 20
7.031136173437393
 30
0.0
 10
6.498265407968901
 20
7.030595885850645
 30
0.0
 10
6.482077963050332
 20
7.030055598263906
 30
0.0
 10
6.479973542860107
 20
7.029695406539406
 30
0.0
 10
6.478921332764995
 20
7.029515310677154
 30
0.0
  0
LINE
  5
BA
330
1F
100
AcDbEntity
  8
0
  6
Continuous
 62
     7
370
    30
100
AcDbLine
 10
6.4789213328
 20
7.0295153107
 30
0.0
 11
6.5189213328
 21
7.0295153107
 31
0.0
  0
LINE
  5
BB
330
1F
100
AcDbEntity
  8
0
  6
Continuous
 62
     7
370
    30
100
AcDbLine
 10
6.4789213328
 20
38.0188376114
 30
0.0
 11
6.4789213328
 21
7.0295153107
 31
0.0
  0
LINE
  5
BC
330
1F
100
AcDbEntity
  8
0
  6
Continuous
 62
     7
370
    30
100
AcDbLine
 10
6.5489213328
 20
38.016676461
 30
0.0
 11
6.5489213328
 21
7.031676461
 31
0.0
  0
SPLINE
  5
BD
330
1F
100
AcDbEntity
  8
0
  6
Continuous
 62
     7
370
    30
100
AcDbSpline
210
0.0
220
0.0
230
1.0
 70
     8
 71
     3
 72
    11
 73
     7
 74
     0
 42
0.00000001
 43
0.00000001
 40
0.0
 40
0.0
 40
0.0
 40
0.0
 40
0.2500000000000049
 40
0.4999999999999928
 40
0.7499999999999999
 40
1.0
 40
1.0
 40
1.0
 40
1.0
 10
6.548921332765002
 20
38.01667646102414
 30
0.0
 10
6.548741236902758
 20
38.02584905409058
 30
0.0
 10
6.548381045178267
 20
38.04419424022345
 30
0.0
 10
6.547840757591506
 20
38.06733238582023
 30
0.0
 10
6.547300470004759
 20
38.08351983073881
 30
0.0
 10
6.546940278280267
 20
38.08562425092903
 30
0.0
 10
6.546760182418019
 20
38.08667646102414
 30
0.0
  0
LINE
  5
BE
330
1F
100
AcDbEntity
  8
0
  6
Continuous
 62
     7
370
    30
100
AcDbLine
 10
6.5467601824
 20
38.086676461
 30
0.0
 11
64.1610824831
 21
38.086676461
 31
0.0
  0
SPLINE
  5
BF
330
1F
100
AcDbEntity
  8
0
  6
Continuous
 62
     7
370
    30
100
AcDbSpline
210
0.0
220
0.0
230
1.0
 70
     8
 71
     3
 72
    11
 73
     7
 74
     0
 42
0.00000001
 43
0.00000001
 40
0.0
 40
0.0
 40
0.0
 40
0.0
 40
0.2500000000000007
 40
0.5000000000000075
 40
0.7499999999999944
 40
0.9999999999999999
 40
0.9999999999999999
 40
0.9999999999999999
 40
0.9999999999999999
 10
64.16108248311198
 20
38.08667646102414
 30
0.0
 10
64.16090238724972
 20
38.08562425092903
 30
0.0
 10
64.16054219552522
 20
38.08351983073881
 30
0.0
 10
64.16000190793848
 20
38.06733238582023
 30
0.0
 10
64.15946162035173
 20
38.04419424022345
 30
0.0
 10
64.15910142862724
 20
38.02584905409058
 30
0.0
 10
64.15892133276499
 20
38.01667646102414
 30
0.0
  0
LINE
  5
C0
330
1F
100
AcDbEntity
  8
0
  6
Continuous
 62
     7
370
    30
100
AcDbLine
 10
64.1589213328
 20
38.016676461
 30
0.0
 11
6.5489213328
 21
38.016676461
 31
0.0
  0
LINE
  5
C1
330
1F
100
AcDbEntity
  8
0
  6
Continuous
 62
     7
370
    30
100
AcDbLine
 10
6.5467601824
 20
38.086676461
 30
0.0
 11
6.5467601824
 21
38.046676461
 31
0.0
  0
LINE
  5
C2
330
1F
100
AcDbEntity
  8
0
  6
Continuous
 62
     7
370
    30
100
AcDbLine
 10
64.1589213328
 20
7.031676461
 30
0.0
 11
64.1589213328
 21
38.016676461
 31
0.0
  0
LINE
  5
C3
330
1F
100
AcDbEntity
  8
0
  6
Continuous
 62
     7
370
    30
100
AcDbLine
 10
6.5489213328
 20
7.031676461
 30
0.0
 11
64.1589213328
 21
7.031676461
 31
0.0
  0
CIRCLE
  5
C4
330
1F
100
AcDbEntity
  8
0
  6
Continuous
 62
     7
370
    30
100
AcDbCircle
 10
63.1039213328
 20
7.492676461
 30
0.0
 40
0.0940000000000021
  0
CIRCLE
  5
C5
330
1F
100
AcDbEntity
  8
0
  6
Continuous
 62
     7
370
    30
100
AcDbCircle
 10
49.1039213328
 20
7.492676461
 30
0.0
 40
0.0940000000000021
  0
CIRCLE
  5
C6
330
1F
100
AcDbEntity
  8
0
  6
Continuous
 62
     7
370
    30
100
AcDbCircle
 10
21.6039213328
 20
7.492676461
 30
0.0
 40
0.0940000000000012
  0
CIRCLE
  5
C7
330
1F
100
AcDbEntity
  8
0
  6
Continuous
 62
     7
370
    30
100
AcDbCircle
 10
7.6039213328
 20
7.492676461
 30
0.0
 40
0.0939999999999976
  0
CIRCLE
  5
C8
330
1F
100
AcDbEntity
  8
0
  6
Continuous
 62
     7
370
    30
100
AcDbCircle
 10
7.6039213328
 20
37.555676461
 30
0.0
 40
0.0940000000000012
  0
CIRCLE
  5
C9
330
1F
100
AcDbEntity
  8
0
  6
Continuous
 62
     7
370
    30
100
AcDbCircle
 10
21.6039213328
 20
37.555676461
 30
0.0
 40
0.0940000000000012
  0
CIRCLE
  5
CA
330
1F
100
AcDbEntity
  8
0
  6
Continuous
 62
     7
370
    30
100
AcDbCircle
 10
49.1039213328
 20
37.555676461
 30
0.0
 40
0.0940000000000012
  0
CIRCLE
  5
CB
330
1F
100
AcDbEntity
  8
0
  6
Continuous
 62
     7
370
    30
100
AcDbCircle
 10
63.1039213328
 20
37.555676461
 30
0.0
 40
0.0940000000000012
  0
CIRCLE
  5
CC
330
1F
100
AcDbEntity
  8
0
  6
Continuous
 62
     7
370
    30
100
AcDbCircle
 10
63.7599213328
 20
22.524176461
 30
0.0
 40
0.0940000000000012
  0
CIRCLE
  5
CD
330
1F
100
AcDbEntity
  8
0
  6
Continuous
 62
     7
370
    30
100
AcDbCircle
 10
63.7599213328
 20
8.524176461
 30
0.0
 40
0.0939999999999976
  0
CIRCLE
  5
CE
330
1F
100
AcDbEntity
  8
0
  6
Continuous
 62
     7
370
    30
100
AcDbCircle
 10
63.7599213328
 20
36.524176461
 30
0.0
 40
0.0940000000000012
  0
CIRCLE
  5
CF
330
1F
100
AcDbEntity
  8
0
  6
Continuous
 62
     7
370
    30
100
AcDbCircle
 10
6.9479213328
 20
36.524176461
 30
0.0
 40
0.0940000000000012
  0
CIRCLE
  5
D0
330
1F
100
AcDbEntity
  8
0
  6
Continuous
 62
     7
370
    30
100
AcDbCircle
 10
6.9479213328
 20
8.524176461
 30
0.0
 40
0.0939999999999976
  0
CIRCLE
  5
D1
330
1F
100
AcDbEntity
  8
0
  6
Continuous
 62
     7
370
    30
100
AcDbCircle
 10
6.9479213328
 20
22.524176461
 30
0.0
 40
0.0940000000000012
  0
CIRCLE
  5
D2
330
1F
100
AcDbEntity
  8
0
  6
Continuous
 62
     7
370
    30
100
AcDbCircle
 10
35.3539213328
 20
7.492676461
 30
0.0
 40
0.0939999999999976
  0
CIRCLE
  5
D3
330
1F
100
AcDbEntity
  8
0
  6
Continuous
 62
     7
370
    30
100
AcDbCircle
 10
35.3539213328
 20
37.555676461
 30
0.0
 40
0.0940000000000012
  0
SPLINE
  5
D4
330
1F
100
AcDbEntity
  8
0
  6
Continuous
 62
     7
370
    30
100
AcDbSpline
210
0.0
220
0.0
230
1.0
 70
     8
 71
     3
 72
    11
 73
     7
 74
     0
 42
0.00000001
 43
0.00000001
 40
0.0
 40
0.0
 40
0.0
 40
0.0
 40
0.2500000000000075
 40
0.4999999999999934
 40
0.7499999999999999
 40
1.0
 40
1.0
 40
1.0
 40
1.0
 10
64.15892133276499
 20
7.031676461024141
 30
0.0
 10
64.15910142862724
 20
7.022503867957704
 30
0.0
 10
64.15946162035175
 20
7.004158681824828
 30
0.0
 10
64.1600019079385
 20
6.981020536228045
 30
0.0
 10
64.16054219552522
 20
6.964833091309476
 30
0.0
 10
64.16090238724973
 20
6.962728671119251
 30
0.0
 10
64.16108248311198
 20
6.961676461024139
 30
0.0
  0
LINE
  5
D5
330
1F
100
AcDbEntity
  8
0
  6
Continuous
 62
     7
370
    30
100
AcDbLine
 10
6.5467601824
 20
6.961676461
 30
0.0
 11
64.1610824831
 21
6.961676461
 31
0.0
  0
SPLINE
  5
D6
330
1F
100
AcDbEntity
  8
0
  6
Continuous
 62
     7
370
    30
100
AcDbSpline
210
0.0
220
0.0
230
1.0
 70
     8
 71
     3
 72
    11
 73
     7
 74
     0
 42
0.00000001
 43
0.00000001
 40
0.0
 40
0.0
 40
0.0
 40
0.0
 40
0.2499999999999992
 40
0.500000000000007
 40
0.7499999999999934
 40
1.0
 40
1.0
 40
1.0
 40
1.0
 10
6.546760182418006
 20
6.961676461024139
 30
0.0
 10
6.546940278280254
 20
6.962728671119251
 30
0.0
 10
6.547300470004754
 20
6.964833091309476
 30
0.0
 10
6.547840757591498
 20
6.98102053622805
 30
0.0
 10
6.54838104517825
 20
7.004158681824828
 30
0.0
 10
6.548741236902741
 20
7.022503867957701
 30
0.0
 10
6.548921332764993
 20
7.031676461024141
 30
0.0
  0
SPLINE
  5
D7
330
1F
100
AcDbEntity
  8
0
  6
Continuous
 62
     7
370
    30
100
AcDbSpline
210
0.0
220
0.0
230
1.0
 70
     8
 71
     3
 72
    11
 73
     7
 74
     0
 42
0.00000001
 43
0.00000001
 40
0.0
 40
0.0
 40
0.0
 40
0.0
 40
0.2500000000000056
 40
0.5000000000000052
 40
0.7500000000000007
 40
1.0
 40
1.0
 40
1.0
 40
1.0
 10
64.15892133276498
 20
38.01667646102414
 30
0.0
 10
64.16809392583143
 20
38.01685655688639
 30
0.0
 10
64.18643911196429
 20
38.01721674861088
 30
0.0
 10
64.20957725756108
 20
38.01775703619764
 30
0.0
 10
64.22576470247965
 20
38.01829732378438
 30
0.0
 10
64.22786912266987
 20
38.01865751550888
 30
0.0
 10
64.22892133276498
 20
38.01883761137113
 30
0.0
  0
LINE
  5
D8
330
1F
100
AcDbEntity
  8
0
  6
Continuous
 62
     7
370
    30
100
AcDbLine
 10
64.2289213328
 20
38.0188376114
 30
0.0
 11
64.1889213328
 21
38.0188376114
 31
0.0
  0
LINE
  5
D9
330
1F
100
AcDbEntity
  8
0
  6
Continuous
 62
     7
370
    30
100
AcDbLine
 10
64.1610824831
 20
38.086676461
 30
0.0
 11
64.1610824831
 21
38.046676461
 31
0.0
  0
LINE
  5
DA
330
1F
100
AcDbEntity
  8
0
  6
Continuous
 62
     7
370
    30
100
AcDbLine
 10
64.2289213328
 20
7.0295153107
 30
0.0
 11
64.2289213328
 21
38.0188376114
 31
0.0
  0
SPLINE
  5
DB
330
1F
100
AcDbEntity
  8
0
  6
Continuous
 62
     7
370
    30
100
AcDbSpline
210
0.0
220
0.0
230
1.0
 70
     8
 71
     3
 72
    11
 73
     7
 74
     0
 42
0.00000001
 43
0.00000001
 40
0.0
 40
0.0
 40
0.0
 40
0.0
 40
0.2499999999999977
 40
0.4999999999999974
 40
0.7499999999999802
 40
1.0
 40
1.0
 40
1.0
 40
1.0
 10
64.22892133276498
 20
7.029515310677154
 30
0.0
 10
64.22786912266987
 20
7.029695406539406
 30
0.0
 10
64.22576470247964
 20
7.030055598263906
 30
0.0
 10
64.20957725756108
 20
7.030595885850645
 30
0.0
 10
64.18643911196432
 20
7.031136173437393
 30
0.0
 10
64.16809392583143
 20
7.031496365161893
 30
0.0
 10
64.15892133276499
 20
7.031676461024141
 30
0.0
  0
LINE
  5
DC
330
1F
100
AcDbEntity
  8
0
  6
Continuous
 62
     7
370
    30
100
AcDbLine
 10
64.1610824831
 20
6.961676461
 30
0.0
 11
64.1610824831
 21
7.001676461
 31
0.0
  0
LINE
  5
DD
330
1F
100
AcDbEntity
  8
0
  6
Continuous
 62
     7
370
    30
100
AcDbLine
 10
6.5467601824
 20
6.961676461
 30
0.0
 11
6.5467601824
 21
7.001676461
 31
0.0
  0
LINE
  5
DE
330
1F
100
AcDbEntity
  8
0
  6
Continuous
 62
     7
370
    30
100
AcDbLine
 10
64.2289213328
 20
7.0295153107
 30
0.0
 11
64.1889213328
 21
7.0295153107
 31
0.0
  0
LINE
  5
DF
330
1F
100
AcDbEntity
  8
0
  6
Continuous
 62
     7
370
    30
100
AcDbLine
 10
64.2569213328
 20
17.501676461
 30
0.0
 11
64.2569213328
 21
27.501676461
 31
0.0
  0
LINE
  5
E0
330
1F
100
AcDbEntity
  8
0
  6
Continuous
 62
     7
370
    30
100
AcDbLine
 10
64.2569213328
 20
17.501676461
 30
0.0
 11
64.2289213328
 21
17.501676461
 31
0.0
  0
LINE
  5
E1
330
1F
100
AcDbEntity
  8
0
  6
Continuous
 62
     7
370
    30
100
AcDbLine
 10
64.2569213328
 20
27.501676461
 30
0.0
 11
64.2289213328
 21
27.501676461
 31
0.0
  0
LINE
  5
E2
330
1F
100
AcDbEntity
  8
0
  6
Continuous
 62
     7
370
    30
100
AcDbLine
 10
68.1889213328
 20
17.501676461
 30
0.0
 11
68.7979213328
 21
18.110676461
 31
0.0
  0
LINE
  5
E3
330
1F
100
AcDbEntity
  8
0
  6
Continuous
 62
     7
370
    30
100
AcDbLine
 10
68.1889213328
 20
17.501676461
 30
0.0
 11
64.2569213328
 21
17.501676461
 31
0.0
  0
LINE
  5
E4
330
1F
100
AcDbEntity
  8
0
  6
Continuous
 62
     7
370
    30
100
AcDbLine
 10
68.1889213328
 20
27.501676461
 30
0.0
 11
64.2569213328
 21
27.501676461
 31
0.0
  0
LINE
  5
E5
330
1F
100
AcDbEntity
  8
0
  6
Continuous
 62
     7
370
    30
100
AcDbLine
 10
68.7979213328
 20
26.892676461
 30
0.0
 11
68.1889213328
 21
27.501676461
 31
0.0
  0
LINE
  5
E6
330
1F
100
AcDbEntity
  8
0
  6
Continuous
 62
     7
370
    30
100
AcDbLine
 10
68.7979213328
 20
18.110676461
 30
0.0
 11
68.7979213328
 21
26.892676461
 31
0.0
  0
CIRCLE
  5
E7
330
1F
100
AcDbEntity
  8
0
  6
Continuous
 62
     7
370
    30
100
AcDbCircle
 10
64.6729213328
 20
17.845676461
 30
0.0
 40
0.09375
  0
CIRCLE
  5
E8
330
1F
100
AcDbEntity
  8
0
  6
Continuous
 62
     7
370
    30
100
AcDbCircle
 10
66.1269213328
 20
20.501676461
 30
0.0
 40
0.09375
  0
CIRCLE
  5
E9
330
1F
100
AcDbEntity
  8
0
  6
Continuous
 62
     7
370
    30
100
AcDbCircle
 10
67.0479213328
 20
17.845676461
 30
0.0
 40
0.09375
  0
CIRCLE
  5
EA
330
1F
100
AcDbEntity
  8
0
  6
Continuous
 62
     7
370
    30
100
AcDbCircle
 10
67.0479213328
 20
27.157676461
 30
0.0
 40
0.09375
  0
CIRCLE
  5
EB
330
1F
100
AcDbEntity
  8
0
  6
Continuous
 62
     7
370
    30
100
AcDbCircle
 10
66.1269213328
 20
24.501676461
 30
0.0
 40
0.09375
  0
CIRCLE
  5
EC
330
1F
100
AcDbEntity
  8
0
  6
Continuous
 62
     7
370
    30
100
AcDbCircle
 10
64.6729213328
 20
27.157676461
 30
0.0
 40
0.09375
  0
LINE
  5
ED
330
1F
100
AcDbEntity
  8
0
  6
Continuous
 62
     7
370
    30
100
AcDbLine
 10
27.4954366891
 20
44.2861918173
 30
0.0
 11
27.5304366891
 21
44.2861918173
 31
0.0
  0
LINE
  5
EE
330
1F
100
AcDbEntity
  8
0
  6
Continuous
 62
     7
370
    30
100
AcDbLine
 10
27.5304366891
 20
44.2861918173
 30
0.0
 11
27.5304366891
 21
38.086676461
 31
0.0
  0
ARC
  5
EF
330
1F
100
AcDbEntity
  8
0
  6
Continuous
 62
     7
370
    30
100
AcDbCircle
 10
15.5104213328
 20
41.1926918173
 30
0.0
 40
0.4374999999999963
100
AcDbArc
 50
278.2793756981
 51
81.7206243019
  0
LINE
  5
F0
330
1F
100
AcDbEntity
  8
0
  6
Continuous
 62
     7
370
    30
100
AcDbLine
 10
15.5734213328
 20
41.5626320557
 30
0.0
 11
15.5734213328
 21
41.6256320557
 31
0.0
  0
LINE
  5
F1
330
1F
100
AcDbEntity
  8
0
  6
Continuous
 62
     7
370
    30
100
AcDbLine
 10
15.4474213328
 20
41.5626320557
 30
0.0
 11
15.5734213328
 21
41.5626320557
 31
0.0
  0
LINE
  5
F2
330
1F
100
AcDbEntity
  8
0
  6
Continuous
 62
     7
370
    30
100
AcDbLine
 10
15.4474213328
 20
41.6256320557
 30
0.0
 11
15.4474213328
 21
41.5626320557
 31
0.0
  0
ARC
  5
F3
330
1F
100
AcDbEntity
  8
0
  6
Continuous
 62
     7
370
    30
100
AcDbCircle
 10
15.5104213328
 20
41.1926918173
 30
0.0
 40
0.4374999999999966
100
AcDbArc
 50
98.2793756981
 51
261.7206243019
  0
LINE
  5
F4
330
1F
100
AcDbEntity
  8
0
  6
Continuous
 62
     7
370
    30
100
AcDbLine
 10
15.4474213328
 20
40.822480519
 30
0.0
 11
15.4474213328
 21
40.759751579
 31
0.0
  0
LINE
  5
F5
330
1F
100
AcDbEntity
  8
0
  6
Continuous
 62
     7
370
    30
100
AcDbLine
 10
15.5734213328
 20
40.8227517249
 30
0.0
 11
15.4474213328
 21
40.822480519
 31
0.0
  0
LINE
  5
F6
330
1F
100
AcDbEntity
  8
0
  6
Continuous
 62
     7
370
    30
100
AcDbLine
 10
15.5734213328
 20
40.759751579
 30
0.0
 11
15.5734213328
 21
40.8227517249
 31
0.0
  0
ARC
  5
F7
330
1F
100
AcDbEntity
  8
0
  6
Continuous
 62
     7
370
    30
100
AcDbCircle
 10
21.5104213328
 20
41.1926918173
 30
0.0
 40
0.4374999999999971
100
AcDbArc
 50
278.2793756981
 51
81.7206243019
  0
LINE
  5
F8
330
1F
100
AcDbEntity
  8
0
  6
Continuous
 62
     7
370
    30
100
AcDbLine
 10
21.5734213328
 20
41.5626320557
 30
0.0
 11
21.5734213328
 21
41.6256320557
 31
0.0
  0
LINE
  5
F9
330
1F
100
AcDbEntity
  8
0
  6
Continuous
 62
     7
370
    30
100
AcDbLine
 10
21.4474213328
 20
41.5626320557
 30
0.0
 11
21.5734213328
 21
41.5626320557
 31
0.0
  0
LINE
  5
FA
330
1F
100
AcDbEntity
  8
0
  6
Continuous
 62
     7
370
    30
100
AcDbLine
 10
21.4474213328
 20
41.6256320557
 30
0.0
 11
21.4474213328
 21
41.5626320557
 31
0.0
  0
ARC
  5
FB
330
1F
100
AcDbEntity
  8
0
  6
Continuous
 62
     7
370
    30
100
AcDbCircle
 10
21.5104213328
 20
41.1926918173
 30
0.0
 40
0.4374999999999961
100
AcDbArc
 50
98.2793756981
 51
261.7206243019
  0
LINE
  5
FC
330
1F
100
AcDbEntity
  8
0
  6
Continuous
 62
     7
370
    30
100
AcDbLine
 10
21.4474213328
 20
40.822480519
 30
0.0
 11
21.4474213328
 21
40.759751579
 31
0.0
  0
LINE
  5
FD
330
1F
100
AcDbEntity
  8
0
  6
Continuous
 62
     7
370
    30
100
AcDbLine
 10
21.5734213328
 20
40.8227517249
 30
0.0
 11
21.4474213328
 21
40.822480519
 31
0.0
  0
LINE
  5
FE
330
1F
100
AcDbEntity
  8
0
  6
Continuous
 62
     7
370
    30
100
AcDbLine
 10
21.5734213328
 20
40.759751579
 30
0.0
 11
21.5734213328
 21
40.8227517249
 31
0.0
  0
LINE
  5
FF
330
1F
100
AcDbEntity
  8
0
  6
Continuous
 62
     7
370
    30
100
AcDbLine
 10
9.5924366891
 20
44.2861918173
 30
0.0
 11
9.5254059764
 21
44.2861918173
 31
0.0
  0
LINE
  5
100
330
1F
100
AcDbEntity
  8
0
  6
Continuous
 62
     7
370
    30
100
AcDbLine
 10
27.4054366891
 20
44.2861918173
 30
0.0
 11
27.4954366891
 21
44.2861918173
 31
0.0
  0
LINE
  5
101
330
1F
100
AcDbEntity
  8
0
  6
Continuous
 62
     7
370
    30
100
AcDbLine
 10
9.4904059764
 20
38.086676461
 30
0.0
 11
9.4904059764
 21
44.2861918173
 31
0.0
  0
LINE
  5
102
330
1F
100
AcDbEntity
  8
0
  6
Continuous
 62
     7
370
    30
100
AcDbLine
 10
9.5254059764
 20
44.2861918173
 30
0.0
 11
9.4904059764
 21
44.2861918173
 31
0.0
  0
LINE
  5
103
330
1F
100
AcDbEntity
  8
0
  6
Continuous
 62
     7
370
    30
100
AcDbLine
 10
15.4474213328
 20
40.822480519
 30
0.0
 11
15.4474213328
 21
40.822751579
 31
0.0
  0
LINE
  5
104
330
1F
100
AcDbEntity
  8
0
  6
Continuous
 62
     7
370
    30
100
AcDbLine
 10
15.4474213328
 20
40.822751579
 30
0.0
 11
15.5733535314
 21
40.822751579
 31
0.0
  0
LINE
  5
105
330
1F
100
AcDbEntity
  8
0
  6
Continuous
 62
     7
370
    30
100
AcDbLine
 10
21.4474213328
 20
40.822480519
 30
0.0
 11
21.4474213328
 21
40.822751579
 31
0.0
  0
LINE
  5
106
330
1F
100
AcDbEntity
  8
0
  6
Continuous
 62
     7
370
    30
100
AcDbLine
 10
21.4474213328
 20
40.822751579
 30
0.0
 11
21.5733535314
 21
40.822751579
 31
0.0
  0
ARC
  5
107
330
1F
100
AcDbEntity
  8
0
  6
Continuous
 62
     7
370
    30
100
AcDbCircle
 10
21.5104213328
 20
3.8106611047
 30
0.0
 40
0.4375000000000032
100
AcDbArc
 50
278.2793756981
 51
81.7206243019
  0
LINE
  5
108
330
1F
100
AcDbEntity
  8
0
  6
Continuous
 62
     7
370
    30
100
AcDbLine
 10
21.5734213328
 20
4.1806013431
 30
0.0
 11
21.5734213328
 21
4.2436013431
 31
0.0
  0
LINE
  5
109
330
1F
100
AcDbEntity
  8
0
  6
Continuous
 62
     7
370
    30
100
AcDbLine
 10
21.4474213328
 20
4.1806013431
 30
0.0
 11
21.5734213328
 21
4.1806013431
 31
0.0
  0
LINE
  5
10A
330
1F
100
AcDbEntity
  8
0
  6
Continuous
 62
     7
370
    30
100
AcDbLine
 10
21.4474213328
 20
4.2436013431
 30
0.0
 11
21.4474213328
 21
4.1806013431
 31
0.0
  0
ARC
  5
10B
330
1F
100
AcDbEntity
  8
0
  6
Continuous
 62
     7
370
    30
100
AcDbCircle
 10
21.5104213328
 20
3.8106611047
 30
0.0
 40
0.4375000000000022
100
AcDbArc
 50
98.2793756981
 51
261.7206243019
  0
LINE
  5
10C
330
1F
100
AcDbEntity
  8
0
  6
Continuous
 62
     7
370
    30
100
AcDbLine
 10
21.4474213328
 20
3.4404498063
 30
0.0
 11
21.4474213328
 21
3.3777208663
 31
0.0
  0
LINE
  5
10D
330
1F
100
AcDbEntity
  8
0
  6
Continuous
 62
     7
370
    30
100
AcDbLine
 10
21.5734213328
 20
3.4407210123
 30
0.0
 11
21.4474213328
 21
3.4404498063
 31
0.0
  0
LINE
  5
10E
330
1F
100
AcDbEntity
  8
0
  6
Continuous
 62
     7
370
    30
100
AcDbLine
 10
21.5734213328
 20
3.3777208663
 30
0.0
 11
21.5734213328
 21
3.4407210123
 31
0.0
  0
ARC
  5
10F
330
1F
100
AcDbEntity
  8
0
  6
Continuous
 62
     7
370
    30
100
AcDbCircle
 10
15.5104213328
 20
3.8106611047
 30
0.0
 40
0.4375000000000024
100
AcDbArc
 50
278.2793756981
 51
81.7206243019
  0
LINE
  5
110
330
1F
100
AcDbEntity
  8
0
  6
Continuous
 62
     7
370
    30
100
AcDbLine
 10
15.5734213328
 20
4.1806013431
 30
0.0
 11
15.5734213328
 21
4.2436013431
 31
0.0
  0
LINE
  5
111
330
1F
100
AcDbEntity
  8
0
  6
Continuous
 62
     7
370
    30
100
AcDbLine
 10
15.4474213328
 20
4.1806013431
 30
0.0
 11
15.5734213328
 21
4.1806013431
 31
0.0
  0
LINE
  5
112
330
1F
100
AcDbEntity
  8
0
  6
Continuous
 62
     7
370
    30
100
AcDbLine
 10
15.4474213328
 20
4.2436013431
 30
0.0
 11
15.4474213328
 21
4.1806013431
 31
0.0
  0
ARC
  5
113
330
1F
100
AcDbEntity
  8
0
  6
Continuous
 62
     7
370
    30
100
AcDbCircle
 10
15.5104213328
 20
3.8106611047
 30
0.0
 40
0.4375000000000027
100
AcDbArc
 50
98.2793756981
 51
261.7206243019
  0
LINE
  5
114
330
1F
100
AcDbEntity
  8
0
  6
Continuous
 62
     7
370
    30
100
AcDbLine
 10
15.4474213328
 20
3.4404498063
 30
0.0
 11
15.4474213328
 21
3.3777208663
 31
0.0
  0
LINE
  5
115
330
1F
100
AcDbEntity
  8
0
  6
Continuous
 62
     7
370
    30
100
AcDbLine
 10
15.5734213328
 20
3.4407210123
 30
0.0
 11
15.4474213328
 21
3.4404498063
 31
0.0
  0
LINE
  5
116
330
1F
100
AcDbEntity
  8
0
  6
Continuous
 62
     7
370
    30
100
AcDbLine
 10
15.5734213328
 20
3.3777208663
 30
0.0
 11
15.5734213328
 21
3.4407210123
 31
0.0
  0
LINE
  5
117
330
1F
100
AcDbEntity
  8
0
  6
Continuous
 62
     7
370
    30
100
AcDbLine
 10
27.4054366891
 20
0.7171611047
 30
0.0
 11
27.4954366891
 21
0.7171611047
 31
0.0
  0
LINE
  5
118
330
1F
100
AcDbEntity
  8
0
  6
Continuous
 62
     7
370
    30
100
AcDbLine
 10
9.5924366891
 20
0.7171611047
 30
0.0
 11
9.5254059764
 21
0.7171611047
 31
0.0
  0
LINE
  5
119
330
1F
100
AcDbEntity
  8
0
  6
Continuous
 62
     7
370
    30
100
AcDbLine
 10
27.5304366891
 20
6.961676461
 30
0.0
 11
27.5304366891
 21
0.7171611047
 31
0.0
  0
LINE
  5
11A
330
1F
100
AcDbEntity
  8
0
  6
Continuous
 62
     7
370
    30
100
AcDbLine
 10
27.4954366891
 20
0.7171611047
 30
0.0
 11
27.5304366891
 21
0.7171611047
 31
0.0
  0
LINE
  5
11B
330
1F
100
AcDbEntity
  8
0
  6
Continuous
 62
     7
370
    30
100
AcDbLine
 10
9.5254059764
 20
0.7171611047
 30
0.0
 11
9.4904059764
 21
0.7171611047
 31
0.0
  0
LINE
  5
11C
330
1F
100
AcDbEntity
  8
0
  6
Continuous
 62
     7
370
    30
100
AcDbLine
 10
9.4904059764
 20
0.7171611047
 30
0.0
 11
9.4904059764
 21
6.961676461
 31
0.0
  0
LINE
  5
11D
330
1F
100
AcDbEntity
  8
0
  6
Continuous
 62
     7
370
    30
100
AcDbLine
 10
15.4474213328
 20
3.4404498063
 30
0.0
 11
15.4474213328
 21
3.4407208663
 31
0.0
  0
LINE
  5
11E
330
1F
100
AcDbEntity
  8
0
  6
Continuous
 62
     7
370
    30
100
AcDbLine
 10
15.4474213328
 20
3.4407208663
 30
0.0
 11
15.5733535314
 21
3.4407208663
 31
0.0
  0
LINE
  5
11F
330
1F
100
AcDbEntity
  8
0
  6
Continuous
 62
     7
370
    30
100
AcDbLine
 10
21.4474213328
 20
3.4404498063
 30
0.0
 11
21.4474213328
 21
3.4407208663
 31
0.0
  0
LINE
  5
120
330
1F
100
AcDbEntity
  8
0
  6
Continuous
 62
     7
370
    30
100
AcDbLine
 10
21.4474213328
 20
3.4407208663
 30
0.0
 11
21.5733535314
 21
3.4407208663
 31
0.0
  0
LINE
  5
121
330
1F
100
AcDbEntity
  8
0
  6
Continuous
 62
     7
370
    30
100
AcDbLine
 10
9.5924366891
 20
0.9636457484
 30
0.0
 11
9.5924366891
 21
0.5626457484
 31
0.0
  0
LINE
  5
122
330
1F
100
AcDbEntity
  8
0
  6
Continuous
 62
     7
370
    30
100
AcDbLine
 10
9.5924366891
 20
0.9636457484
 30
0.0
 11
27.4054366891
 21
0.9636457484
 31
0.0
  0
LINE
  5
123
330
1F
100
AcDbEntity
  8
0
  6
Continuous
 62
     7
370
    30
100
AcDbLine
 10
27.4054366891
 20
0.9636457484
 30
0.0
 11
27.4054366891
 21
0.5626457484
 31
0.0
  0
LINE
  5
124
330
1F
100
AcDbEntity
  8
0
  6
Continuous
 62
     7
370
    30
100
AcDbLine
 10
27.4054366891
 20
0.5626457484
 30
0.0
 11
9.5924366891
 21
0.5626457484
 31
0.0
  0
LINE
  5
125
330
1F
100
AcDbEntity
  8
0
  6
Continuous
 62
     7
370
    30
100
AcDbLine
 10
27.4054366891
 20
0.5256457484
 30
0.0
 11
27.4054366891
 21
0.5626457484
 31
0.0
  0
LINE
  5
126
330
1F
100
AcDbEntity
  8
0
  6
Continuous
 62
     7
370
    30
100
AcDbLine
 10
27.4054366891
 20
0.5256457484
 30
0.0
 11
9.5924366891
 21
0.5256457484
 31
0.0
  0
LINE
  5
127
330
1F
100
AcDbEntity
  8
0
  6
Continuous
 62
     7
370
    30
100
AcDbLine
 10
9.5924366891
 20
0.5626457484
 30
0.0
 11
9.5924366891
 21
0.5256457484
 31
0.0
  0
LINE
  5
128
330
1F
100
AcDbEntity
  8
0
  6
Continuous
 62
     7
370
    30
100
AcDbLine
 10
9.5924366891
 20
44.0397071737
 30
0.0
 11
27.4054366891
 21
44.0397071737
 31
0.0
  0
LINE
  5
129
330
1F
100
AcDbEntity
  8
0
  6
Continuous
 62
     7
370
    30
100
AcDbLine
 10
9.5924366891
 20
44.0397071737
 30
0.0
 11
9.5924366891
 21
44.4407071737
 31
0.0
  0
LINE
  5
12A
330
1F
100
AcDbEntity
  8
0
  6
Continuous
 62
     7
370
    30
100
AcDbLine
 10
9.5924366891
 20
44.4407071737
 30
0.0
 11
27.4054366891
 21
44.4407071737
 31
0.0
  0
LINE
  5
12B
330
1F
100
AcDbEntity
  8
0
  6
Continuous
 62
     7
370
    30
100
AcDbLine
 10
27.4054366891
 20
44.4407071737
 30
0.0
 11
27.4054366891
 21
44.0397071737
 31
0.0
  0
LINE
  5
12C
330
1F
100
AcDbEntity
  8
0
  6
Continuous
 62
     7
370
    30
100
AcDbLine
 10
9.5924366891
 20
44.4777071737
 30
0.0
 11
9.5924366891
 21
44.4407071737
 31
0.0
  0
LINE
  5
12D
330
1F
100
AcDbEntity
  8
0
  6
Continuous
 62
     7
370
    30
100
AcDbLine
 10
9.5924366891
 20
44.4777071737
 30
0.0
 11
27.4054366891
 21
44.4777071737
 31
0.0
  0
LINE
  5
12E
330
1F
100
AcDbEntity
  8
0
  6
Continuous
 62
     7
370
    30
100
AcDbLine
 10
27.4054366891
 20
44.4407071737
 30
0.0
 11
27.4054366891
 21
44.4777071737
 31
0.0
  0
LINE
  5
12F
330
1F
100
AcDbEntity
  8
0
  6
Continuous
 62
     7
370
    30
100
AcDbLine
 10
9.5924366891
 20
0.620676461
 30
0.0
 11
9.5834366891
 21
0.620676461
 31
0.0
  0
LINE
  5
130
330
1F
100
AcDbEntity
  8
0
  6
Continuous
 62
     7
370
    30
100
AcDbLine
 10
9.5834366891
 20
0.620676461
 30
0.0
 11
9.5834366891
 21
0.7171611047
 31
0.0
  0
SPLINE
  5
131
330
1F
100
AcDbEntity
  8
0
  6
Continuous
 62
     7
370
    30
100
AcDbSpline
210
0.0
220
0.0
230
1.0
 70
     8
 71
     3
 72
     9
 73
     5
 74
     0
 42
0.00000001
 43
0.00000001
 40
0.0
 40
0.0
 40
0.0
 40
0.0
 40
0.4550643560223183
 40
1.0
 40
1.0
 40
1.0
 40
1.0
 10
9.59243668909016
 20
0.5988003705874181
 30
0.0
 10
9.590012969901316
 20
0.6018319458330372
 30
0.0
 10
9.584686867874705
 20
0.6084938063050804
 30
0.0
 10
9.583877656960523
 20
0.6170266243356457
 30
0.0
 10
9.583436689089892
 20
0.6216764610240835
 30
0.0
  0
LINE
  5
132
330
1F
100
AcDbEntity
  8
0
  6
Continuous
 62
     7
370
    30
100
AcDbLine
 10
9.5834366891
 20
44.382676461
 30
0.0
 11
9.5834366891
 21
44.2861918173
 31
0.0
  0
LINE
  5
133
330
1F
100
AcDbEntity
  8
0
  6
Continuous
 62
     7
370
    30
100
AcDbLine
 10
9.5924366891
 20
44.382676461
 30
0.0
 11
9.5834366891
 21
44.382676461
 31
0.0
  0
SPLINE
  5
134
330
1F
100
AcDbEntity
  8
0
  6
Continuous
 62
     7
370
    30
100
AcDbSpline
210
0.0
220
0.0
230
1.0
 70
     8
 71
     3
 72
     9
 73
     5
 74
     0
 42
0.00000001
 43
0.00000001
 40
0.0
 40
0.0
 40
0.0
 40
0.0
 40
0.5449356439850674
 40
1.0
 40
1.0
 40
1.0
 40
1.0
 10
9.583436689089883
 20
44.38167646102409
 30
0.0
 10
9.58387765696051
 20
44.38632629771252
 30
0.0
 10
9.58468686787467
 20
44.39485911574297
 30
0.0
 10
9.590012969901194
 20
44.40152097621493
 30
0.0
 10
9.592436689089963
 20
44.40455255146045
 30
0.0
  0
LINE
  5
135
330
1F
100
AcDbEntity
  8
0
  6
Continuous
 62
     8
370
    30
100
AcDbLine
 10
5.903915437
 20
29.7783977061
 30
0.0
 11
5.903915437
 21
29.3493118514
 31
0.0
  0
LINE
  5
136
330
1F
100
AcDbEntity
  8
0
  6
Continuous
 62
     8
370
    30
100
AcDbLine
 10
5.8479272286
 20
29.3495226178
 30
0.0
 11
5.8479272286
 21
29.7804351662
 31
0.0
  0
LINE
  5
137
330
1F
100
AcDbEntity
  8
0
  6
Continuous
 62
     8
370
    30
100
AcDbLine
 10
5.903915437
 20
30.5284523118
 30
0.0
 11
5.903915437
 21
30.0993308132
 31
0.0
  0
LINE
  5
138
330
1F
100
AcDbEntity
  8
0
  6
Continuous
 62
     8
370
    30
100
AcDbLine
 10
5.8479272286
 20
30.0995242902
 30
0.0
 11
5.8479272286
 21
30.5305193945
 31
0.0
  0
LINE
  5
139
330
1F
100
AcDbEntity
  8
0
  6
Continuous
 62
     8
370
    30
100
AcDbLine
 10
27.4954366891
 20
44.2861918173
 30
0.0
 11
27.4954366891
 21
38.086676461
 31
0.0
  0
LINE
  5
13A
330
1F
100
AcDbEntity
  8
0
  6
Continuous
 62
     8
370
    30
100
AcDbLine
 10
9.5254059764
 20
38.086676461
 30
0.0
 11
9.5254059764
 21
44.2861918173
 31
0.0
  0
LINE
  5
13B
330
1F
100
AcDbEntity
  8
0
  6
Continuous
 62
     8
370
    30
100
AcDbLine
 10
27.4954366891
 20
6.961676461
 30
0.0
 11
27.4954366891
 21
0.7171611047
 31
0.0
  0
LINE
  5
13C
330
1F
100
AcDbEntity
  8
0
  6
Continuous
 62
     8
370
    30
100
AcDbLine
 10
9.5254059764
 20
0.7171611047
 30
0.0
 11
9.5254059764
 21
6.961676461
 31
0.0
  0
LINE
  5
13D
330
1F
100
AcDbEntity
  8
FORMAT
100
AcDbLine
 10
71.7101748463
 20
23.3172725827
 30
0.0
 11
71.7101748463
 21
21.2028481485
 31
0.0
  0
LINE
  5
13E
330
1F
100
AcDbEntity
  8
FORMAT
100
AcDbLine
 10
71.7101748463
 20
21.2028481485
 30
0.0
 11
75.3091503009
 21
21.2028481485
 31
0.0
  0
LINE
  5
13F
330
1F
100
AcDbEntity
  8
FORMAT
100
AcDbLine
 10
75.3091503009
 20
21.2028481485
 30
0.0
 11
75.3091503009
 21
19.3940105176
 31
0.0
  0
LINE
  5
140
330
1F
100
AcDbEntity
  8
FORMAT
100
AcDbLine
 10
75.3091503009
 20
19.3940105176
 30
0.0
 11
78.1752001489
 21
22.2600603656
 31
0.0
  0
LINE
  5
141
330
1F
100
AcDbEntity
  8
FORMAT
100
AcDbLine
 10
78.1752001489
 20
22.2600603656
 30
0.0
 11
75.3091503009
 21
25.1261102135
 31
0.0
  0
LINE
  5
142
330
1F
100
AcDbEntity
  8
FORMAT
100
AcDbLine
 10
75.3091503009
 20
25.1261102135
 30
0.0
 11
75.3091503009
 21
23.3172725827
 31
0.0
  0
LINE
  5
143
330
1F
100
AcDbEntity
  8
FORMAT
100
AcDbLine
 10
75.3091503009
 20
23.3172725827
 30
0.0
 11
71.7101748463
 21
23.3172725827
 31
0.0
  0
INSERT
  5
16E
330
1F
100
AcDbEntity
  8
FORMAT
100
AcDbBlockReference
  2
SW_NOTE_0
 10
29.21015856
 20
23.5072803418
 30
0.0
  0
ENDSEC
  0
SECTION
  2
OBJECTS
  0
DICTIONARY
  5
C
330
0
100
AcDbDictionary
281
     1
  3
ACAD_GROUP
350
D
  3
ACAD_LAYOUT
350
1A
  3
ACAD_MLINESTYLE
350
17
  3
ACAD_PLOTSETTINGS
350
19
  3
ACAD_PLOTSTYLENAME
350
E
  3
ACAD_SCALELIST
350
148
  3
AcDbVariableDictionary
350
16F
  0
DICTIONARY
  5
D
102
{ACAD_REACTORS
330
C
102
}
330
C
100
AcDbDictionary
281
     1
  0
DICTIONARY
  5
1A
102
{ACAD_REACTORS
330
C
102
}
330
C
100
AcDbDictionary
281
     1
  3
Layout1
350
1E
  3
Layout2
350
26
  3
Model
350
22
  0
DICTIONARY
  5
17
102
{ACAD_REACTORS
330
C
102
}
330
C
100
AcDbDictionary
281
     1
  3
Standard
350
18
  0
DICTIONARY
  5
19
102
{ACAD_REACTORS
330
C
102
}
330
C
100
AcDbDictionary
281
     1
  0
ACDBDICTIONARYWDFLT
  5
E
102
{ACAD_REACTORS
330
C
102
}
330
C
100
AcDbDictionary
281
     1
  3
Normal
350
F
100
AcDbDictionaryWithDefault
340
F
  0
DICTIONARY
  5
148
102
{ACAD_REACTORS
330
C
102
}
330
C
100
AcDbDictionary
281
     1
  3
A0
350
149
  3
A1
350
14A
  3
A2
350
14B
  3
A3
350
14C
  3
A4
350
14D
  3
A5
350
14E
  3
A6
350
14F
  3
A7
350
150
  3
A8
350
151
  3
A9
350
152
  3
B0
350
153
  3
B1
350
154
  3
B2
350
155
  3
B3
350
156
  3
B4
350
157
  3
B5
350
158
  3
B6
350
159
  3
B7
350
15A
  3
B8
350
15B
  3
B9
350
15C
  3
C0
350
15D
  3
C1
350
15E
  3
C2
350
15F
  3
C3
350
160
  3
C4
350
161
  3
C5
350
162
  3
C6
350
163
  3
C7
350
164
  3
C8
350
165
  3
C9
350
166
  3
D0
350
167
  3
D1
350
168
  3
D2
350
169
  0
DICTIONARY
  5
16F
102
{ACAD_REACTORS
330
C
102
}
330
C
100
AcDbDictionary
281
     1
  3
CANNOSCALE
350
170
  0
LAYOUT
  5
1E
102
{ACAD_REACTORS
330
1A
102
}
330
1A
100
AcDbPlotSettings
  1

  2
none_device
  4

  6

 40
0.0
 41
0.0
 42
0.0
 43
0.0
 44
0.0
 45
0.0
 46
0.0
 47
0.0
 48
0.0
 49
0.0
140
0.0
141
0.0
142
1.0
143
1.0
 70
   688
 72
     0
 73
     0
 74
     5
  7

 75
    16
147
1.0
148
0.0
149
0.0
100
AcDbLayout
  1
Layout1
 70
     1
 71
     1
 10
0.0
 20
0.0
 11
12.0
 21
9.0
 12
0.0
 22
0.0
 32
0.0
 14
1.0000000000E+20
 24
1.0000000000E+20
 34
1.0000000000E+20
 15
-1.0000000000E+20
 25
-1.0000000000E+20
 35
-1.0000000000E+20
146
0.0
 13
0.0
 23
0.0
 33
0.0
 16
1.0
 26
0.0
 36
0.0
 17
0.0
 27
1.0
 37
0.0
 76
     0
330
1B
  0
LAYOUT
  5
26
102
{ACAD_REACTORS
330
1A
102
}
330
1A
100
AcDbPlotSettings
  1

  2
none_device
  4

  6

 40
0.0
 41
0.0
 42
0.0
 43
0.0
 44
0.0
 45
0.0
 46
0.0
 47
0.0
 48
0.0
 49
0.0
140
0.0
141
0.0
142
1.0
143
1.0
 70
   688
 72
     0
 73
     0
 74
     5
  7

 75
    16
147
1.0
148
0.0
149
0.0
100
AcDbLayout
  1
Layout2
 70
     1
 71
     2
 10
0.0
 20
0.0
 11
0.0
 21
0.0
 12
0.0
 22
0.0
 32
0.0
 14
0.0
 24
0.0
 34
0.0
 15
0.0
 25
0.0
 35
0.0
146
0.0
 13
0.0
 23
0.0
 33
0.0
 16
1.0
 26
0.0
 36
0.0
 17
0.0
 27
1.0
 37
0.0
 76
     0
330
23
  0
LAYOUT
  5
22
102
{ACAD_REACTORS
330
1A
102
}
330
1A
100
AcDbPlotSettings
  1

  2
none_device
  4

  6

 40
0.0
 41
0.0
 42
0.0
 43
0.0
 44
0.0
 45
0.0
 46
0.0
 47
0.0
 48
0.0
 49
0.0
140
0.0
141
0.0
142
1.0
143
1.0
 70
  1712
 72
     0
 73
     0
 74
     0
  7

 75
     0
147
1.0
148
0.0
149
0.0
100
AcDbLayout
  1
Model
 70
     1
 71
     0
 10
0.0
 20
0.0
 11
80.0
 21
45.0
 12
0.0
 22
0.0
 32
0.0
 14
0.0
 24
0.0
 34
0.0
 15
80.0
 25
45.0
 35
0.0
146
0.0
 13
0.0
 23
0.0
 33
0.0
 16
1.0
 26
0.0
 36
0.0
 17
0.0
 27
1.0
 37
0.0
 76
     0
330
1F
331
29
  0
MLINESTYLE
  5
18
102
{ACAD_REACTORS
330
17
102
}
330
17
100
AcDbMlineStyle
  2
Standard
 70
     0
  3

 62
   256
 51
90.0
 52
90.0
 71
     2
 49
0.5
 62
   256
  6
BYLAYER
 49
-0.5
 62
   256
  6
BYLAYER
  0
ACDBPLACEHOLDER
  5
F
102
{ACAD_REACTORS
330
E
102
}
330
E
  0
SCALE
  5
149
102
{ACAD_REACTORS
330
148
102
}
330
148
100
AcDbScale
 70
     0
300
1:1
140
1.0
141
1.0
290
     1
  0
SCALE
  5
14A
102
{ACAD_REACTORS
330
148
102
}
330
148
100
AcDbScale
 70
     0
300
1:2
140
1.0
141
2.0
290
     0
  0
SCALE
  5
14B
102
{ACAD_REACTORS
330
148
102
}
330
148
100
AcDbScale
 70
     0
300
1:4
140
1.0
141
4.0
290
     0
  0
SCALE
  5
14C
102
{ACAD_REACTORS
330
148
102
}
330
148
100
AcDbScale
 70
     0
300
1:5
140
1.0
141
5.0
290
     0
  0
SCALE
  5
14D
102
{ACAD_REACTORS
330
148
102
}
330
148
100
AcDbScale
 70
     0
300
1:8
140
1.0
141
8.0
290
     0
  0
SCALE
  5
14E
102
{ACAD_REACTORS
330
148
102
}
330
148
100
AcDbScale
 70
     0
300
1:10
140
1.0
141
10.0
290
     0
  0
SCALE
  5
14F
102
{ACAD_REACTORS
330
148
102
}
330
148
100
AcDbScale
 70
     0
300
1:16
140
1.0
141
16.0
290
     0
  0
SCALE
  5
150
102
{ACAD_REACTORS
330
148
102
}
330
148
100
AcDbScale
 70
     0
300
1:20
140
1.0
141
20.0
290
     0
  0
SCALE
  5
151
102
{ACAD_REACTORS
330
148
102
}
330
148
100
AcDbScale
 70
     0
300
1:30
140
1.0
141
30.0
290
     0
  0
SCALE
  5
152
102
{ACAD_REACTORS
330
148
102
}
330
148
100
AcDbScale
 70
     0
300
1:40
140
1.0
141
40.0
290
     0
  0
SCALE
  5
153
102
{ACAD_REACTORS
330
148
102
}
330
148
100
AcDbScale
 70
     0
300
1:50
140
1.0
141
50.0
290
     0
  0
SCALE
  5
154
102
{ACAD_REACTORS
330
148
102
}
330
148
100
AcDbScale
 70
     0
300
1:100
140
1.0
141
100.0
290
     0
  0
SCALE
  5
155
102
{ACAD_REACTORS
330
148
102
}
330
148
100
AcDbScale
 70
     0
300
2:1
140
2.0
141
1.0
290
     0
  0
SCALE
  5
156
102
{ACAD_REACTORS
330
148
102
}
330
148
100
AcDbScale
 70
     0
300
4:1
140
4.0
141
1.0
290
     0
  0
SCALE
  5
157
102
{ACAD_REACTORS
330
148
102
}
330
148
100
AcDbScale
 70
     0
300
8:1
140
8.0
141
1.0
290
     0
  0
SCALE
  5
158
102
{ACAD_REACTORS
330
148
102
}
330
148
100
AcDbScale
 70
     0
300
10:1
140
10.0
141
1.0
290
     0
  0
SCALE
  5
159
102
{ACAD_REACTORS
330
148
102
}
330
148
100
AcDbScale
 70
     0
300
100:1
140
100.0
141
1.0
290
     0
  0
SCALE
  5
15A
102
{ACAD_REACTORS
330
148
102
}
330
148
100
AcDbScale
 70
     0
300
1/128" = 1'-0"
140
0.0078125
141
12.0
290
     0
  0
SCALE
  5
15B
102
{ACAD_REACTORS
330
148
102
}
330
148
100
AcDbScale
 70
     0
300
1/64" = 1'-0"
140
0.015625
141
12.0
290
     0
  0
SCALE
  5
15C
102
{ACAD_REACTORS
330
148
102
}
330
148
100
AcDbScale
 70
     0
300
1/32" = 1'-0"
140
0.03125
141
12.0
290
     0
  0
SCALE
  5
15D
102
{ACAD_REACTORS
330
148
102
}
330
148
100
AcDbScale
 70
     0
300
1/16" = 1'-0"
140
0.0625
141
12.0
290
     0
  0
SCALE
  5
15E
102
{ACAD_REACTORS
330
148
102
}
330
148
100
AcDbScale
 70
     0
300
3/32" = 1'-0"
140
0.09375
141
12.0
290
     0
  0
SCALE
  5
15F
102
{ACAD_REACTORS
330
148
102
}
330
148
100
AcDbScale
 70
     0
300
1/8" = 1'-0"
140
0.125
141
12.0
290
     0
  0
SCALE
  5
160
102
{ACAD_REACTORS
330
148
102
}
330
148
100
AcDbScale
 70
     0
300
3/16" = 1'-0"
140
0.1875
141
12.0
290
     0
  0
SCALE
  5
161
102
{ACAD_REACTORS
330
148
102
}
330
148
100
AcDbScale
 70
     0
300
1/4" = 1'-0"
140
0.25
141
12.0
290
     0
  0
SCALE
  5
162
102
{ACAD_REACTORS
330
148
102
}
330
148
100
AcDbScale
 70
     0
300
3/8" = 1'-0"
140
0.375
141
12.0
290
     0
  0
SCALE
  5
163
102
{ACAD_REACTORS
330
148
102
}
330
148
100
AcDbScale
 70
     0
300
1/2" = 1'-0"
140
0.5
141
12.0
290
     0
  0
SCALE
  5
164
102
{ACAD_REACTORS
330
148
102
}
330
148
100
AcDbScale
 70
     0
300
3/4" = 1'-0"
140
0.75
141
12.0
290
     0
  0
SCALE
  5
165
102
{ACAD_REACTORS
330
148
102
}
330
148
100
AcDbScale
 70
     0
300
1" = 1'-0"
140
1.0
141
12.0
290
     0
  0
SCALE
  5
166
102
{ACAD_REACTORS
330
148
102
}
330
148
100
AcDbScale
 70
     0
300
1-1/2" = 1'-0"
140
1.5
141
12.0
290
     0
  0
SCALE
  5
167
102
{ACAD_REACTORS
330
148
102
}
330
148
100
AcDbScale
 70
     0
300
3" = 1'-0"
140
3.0
141
12.0
290
     0
  0
SCALE
  5
168
102
{ACAD_REACTORS
330
148
102
}
330
148
100
AcDbScale
 70
     0
300
6" = 1'-0"
140
6.0
141
12.0
290
     0
  0
SCALE
  5
169
102
{ACAD_REACTORS
330
148
102
}
330
148
100
AcDbScale
 70
     0
300
1'-0" = 1'-0"
140
12.0
141
12.0
290
     0
  0
DICTIONARYVAR
  5
170
102
{ACAD_REACTORS
330
16F
102
}
330
16F
100
DictionaryVariables
280
     0
  1
1:1
  0
ENDSEC
  0
EOF
